Gordon Lightfoot - Wreck Of The Edmund Fitzgerald Chords & Tabs

 

Wreck Of The Edmund Fitzgerald Chords & Tabs

Gordon Lightfoot Chords & Tabs

Version: 1 Type: Tab 0 ratings
1 star 2 stars 3 stars 4 stars 5 stars
comments

Wreck Of The Edmund Fitzgerald Tab

   
*note
I saw a tab on here that says you need a capo to play this, but it's easier
without, credit goes to my Guitar teacher for the chords.

Define:       Asus         Em        G           D
             002200      022000    320001     XX0232

v=Downstroke
^=Upstroke
b=Bend
r=Release

Intro/Fill
e--7-7-9-7-5--------------------------
b------------7-5-7---5-7-7b-r7-5-3-5-0
g-------------------------------------
d-------------------------------------
a-------------------------------------
e-------------------------------------


Verse
[ Tab from: http://www.guitartabs.cc/tabs/g/gordon_lightfoot/wreck_of_the_edmund_fitzgerald_tab.html ]
      Asus                            Em
      v  v  ^  v ^    v  v  ^  v ^    v  v  ^  v ^    v  v  ^  v ^
e-----0--0--0--0-0----0--0--0--0-0----0--0--0--0-0----0--0--0--0-0--
b-----0--0--0--0-0----0--0--0--0-0----0--0--0--0-0----0--0--0--0-0--
g-----2--2--2--2-2----2--2--2--2-2----0--0--0--0-0----0--0--0--0-0--
d-----2--2--2--2-2----2--2--2--2-2----2--2--2--2-2----2--2--2--2-2--
a-----0--0--0--0-0----0--0--0--0-0----2--2--2--2-2----2--2--2--2-2--
e-----0--0--0--0-0----0--0--0--0-0----0--0--0--0-0----0--0--0--0-0--

      G               D               Asus
      v  v  ^  v ^    v  v  ^  v ^    v  v  ^  v ^
e-----3--3--3--3-3----2--2--2--2-2----0--0--0--0-0-
b-----0--0--0--0-0----3--3--3--3-3----0--0--0--0-0-
g-----0--0--0--0-0----2--2--2--2-2----2--2--2--2-2-    X4
d-----0--0--0--0-0----0--0--0--0-0----2--2--2--2-2-
a-----2--2--2--2-2----x--x--x--x-x----0--0--0--0-0-
e-----1--1--1--1-1----x--x--x--x-x----0--0--0--0-0-

Just play the intro, then verse, fill, verse, fill, verse, fill, untill the song ends.
Comments