Gordon Lightfoot - Sundown Chords & Tabs

 

Sundown Chords & Tabs

Gordon Lightfoot Chords & Tabs

Version: 1 Type: Tab 0 ratings
1 star 2 stars 3 stars 4 stars 5 stars
comments

Sundown Tab

Artist: Gordon Lightfoot
Song: Sundown
Tabber: Samuel Scheideman
Comments: I don't have the lead parts during the verses or the intro but I got the solos.
Also I don't have the chord structure everybody has that so go read those other tabs for that.
Tuning: Standard
E-mail addy: klayfeather@hotmail.com



Intro Guitar 1: 12 string with Capo on 2st fret
E------0-----0--0----0-0-0-0-0-0-0--
B------0-----0--0----0-0-0-0-0-0-0--
G------4-----4--4----4-4-4-4-4-4-4--
D------2-----2--2----2-2-2-2-2-2-2--
A------2-----2--2----2--------------
E---0-----0--------0----------------


Solo: Clean electric or acoustic with steel strings
E-------------------------------------------------------------------
B---------8--11--8---------8--11--8---8-11-8-11-8---------8--11--8--
G--7--10------------7--10--------------------------7-h10------------
D-------------------------------------------------------------------
A-------------------------------------------------------------------
E-------------------------------------------------------------------
[ Tab from: http://www.guitartabs.cc/tabs/g/gordon_lightfoot/sundown_tab.html ]
Solo continued: Not sure about right after the bend on 14th fret just trill around I guess
E--10b(12)-12-----10b(12)-12-----14b-14--12--10--12-----
B--------------8--------------8----------------------8--
G-------------------------------------------------------
D-------------------------------------------------------
A-------------------------------------------------------
E-------------------------------------------------------
Solo continued:
E----------------------------------------------------------------
B-----------8--11--8-----8--11--8--11--8-----8--8--11--8--11--8--
G--7-h10---------------------------------------------------------
D----------------------------------------------------------------
A----------------------------------------------------------------
E----------------------------------------------------------------

Solo continued: last part, the bass run  
E-----------------------------------
B-----------------------------------
G--7--5--3--------------------------
D-------------5--3------------------
A---------------------5--3--1-------
E--------------------------------3--


Outro: Here pre-bend 14. again I'm not sure after that on 12 and 10

E--(14)b--r14--12-10-12-----
B------------------------8--
G---------------------------
D---------------------------
A---------------------------
E---------------------------

E--------------------------------------------------------------------
B---------8--11--8---------8--11--8---8-11-8-11-8----------8--11--8--
G--7--10------------7--10---------------------------7-h10------------
D--------------------------------------------------------------------
A--------------------------------------------------------------------
E--------------------------------------------------------------------
Comments