Goodshirt - Sophie Chords & Tabs

 

Sophie Chords & Tabs

Goodshirt Chords & Tabs

Version: 2 Type: Tab 0 ratings
1 star 2 stars 3 stars 4 stars 5 stars
comments

Sophie Tab

Band: Goodshirt
Song: Sophie
SOLO
 
Tabbed by Christian (p_g_chris)

Normal Tuning


e|---------------------------------------------------------
B|---2h3p2------2h3p2---2h3p2------------------------------
G|----------2-------------------2--0---2-------------------
D|---------------------------------------------------------
A|---------------------------------------------------------
E|---------------------------------------------------------
[ Tab from: http://www.guitartabs.cc/tabs/g/goodshirt/sophie_tab_ver_2.html ]
e|---------------------------------------------------------
B|---2h3p2------2h3p2---2h3p2---3---5----3---2-------------
G|----------2----------------------------------------------
D|---------------------------------------------------------
A|---------------------------------------------------------
E|---------------------------------------------------------

e|---------------------------------------------------------
B|---2h3p2------2h3p2---2h3p2---3---5----3---5-------------
G|----------2----------------------------------------------
D|---------------------------------------------------------
A|---------------------------------------------------------
E|---------------------------------------------------------

e|---------------------------------------------------------
B|---7----5----7-----8----7----8-----10----8-----12----10--
G|---------------------------------------------------------
D|---------------------------------------------------------
A|---------------------------------------------------------
E|---------------------------------------------------------



(Rest of the song probably coming soon!!) Although its easy to figure out :)
Comments