Goodnight Nurse - Milkshake Chords & Tabs

 

Milkshake Chords & Tabs

Goodnight Nurse Chords & Tabs

Version: 1 Type: Tab

Milkshake Tab

www.goodnightnurse.com
[ Tab from: http://www.guitartabs.cc/tabs/g/goodnight_nurse/milkshake_tab.html ]
Begining    |Repeat this|7x
e|---------------------|
b|---------------------|
g|-----------------6-6-|
d|--4-4-4-4--4p0-0-6-6-|
a|-4-4-4-4--4------4-4-|
E|---------------------|


Repeat| 22x  |
e|----------------------|
b|----------------------|
g|7---6-6-6---7-7-7-6-6-|
d|7---6-6-6---7-7-7-6-6-|
a|5---4-4-4---5-5-5-4-4-|
E|----------------------|
   P.M---|

Begining 12x