Good Riddance - Trial Of The Century Chords & Tabs

 

Trial Of The Century Chords & Tabs

Good Riddance Chords & Tabs

Version: 1 Type: Tab 0 ratings
1 star 2 stars 3 stars 4 stars 5 stars
comments

Trial Of The Century Tab

   
-------------------------------------------------------------------------------
			    Trial of the Century - Good Riddance
From the Album-Symptoms of a Leveling Spirit
-------------------------------------------------------------------------------
Tabbed by: ddi Mau
Email:nmaone@fastmail.fm

Tuning: standard 

Quick palm muted power chords through verse - listen to the song for the rhythm

Verse chords:

    A#   D#  G#  D#  A#
E|---------------------------------------------------------------------------|
B|---------------------------------------------------------------------------|
G|--------8----------8-------------------------------------------------------|
D|--8-----8-----6----8----8--------------------------------------------------|
A|--8-----6-----6----6----8--------------------------------------------------|
E|--6-----------4---------6--------------------------------------------------|
   
[ Tab from: http://www.guitartabs.cc/tabs/g/good_riddance/trial_of_the_century_tab.html ]
Chorus chords:
    D#  G#  A#  G   G#  D#  A#
E|---------------------------------------------------------------------------|
B|---------------------------------------------------------------------------|
G|--8------------------------8-----------------------------------------------|
D|--8----6----8----5----6----8-----8-----------------------------------------|
A|--6----6----8----5----6----6-----8-----------------------------------------|
E|-------4----6----3----4----------6-----------------------------------------|

Bridge chords:
    F   A#   A   G   D#   F
E|---------------------------------------------------------------------------|
B|---------------------------------------------------------------------------|
G|--10-------------------8-----10--------------------------------------------|
D|--10----8----7----5----8-----10--------------------------------------------|
A|--8-----8----7----5----6-----8---------------------------------------------|
E|--------6----5----3--------------------------------------------------------|

===============================================================================
Comments