Good Riddance - Stand Chords & Tabs

 

Stand Chords & Tabs

Good Riddance Chords & Tabs

Version: 1 Type: Bass Tab 0 ratings
1 star 2 stars 3 stars 4 stars 5 stars
comments

Stand Bass Tab

-----------------------------------------------------------------------
                     STAND       GOOD RIDDANCE
-----------------------------------------------------------------------

>Means Strum

INTROx2
G]---------------------------------]
D]---------------------------------]
A]-5-5-5-5-7-7-9-9-10-10-10-10-12>-]
E]---------------------------------]
[ Tab from: http://www.guitartabs.cc/tabs/g/good_riddance/stand_btab.html ]
CHORUS
G]-------------]
D]-------------]
A]----5>-------]
E]-3>----3>-5>-]

BRIDGE 1
G]----------------]
D]----------------]
A]-5>----3>-------]
E]----3>----3-2-3-]

VERSE
CHORUS

BRIDGE 2
G]-------------------------]
D]-------7-7-7-5-5-5-9-9-9-]
A]-5-5-5-------------------]
E]-------------------------]

BRIDGE 3
G]------------------------------]
D]------------------------------]
A]-5>----5>-------------------5-]
E]----3>----3>-5>-3>-5>-3>-5>---]

Comments