Good Riddance - Shadows Of Defeat Chords & Tabs

 

Shadows Of Defeat Chords & Tabs

Good Riddance Chords & Tabs

Version: 1 Type: Tab 0 ratings
1 star 2 stars 3 stars 4 stars 5 stars
comments

Shadows Of Defeat Tab

SHADOWS OF DEFEAT - Good Riddance

By:Daniel Florez RvltnUltrBlu@aol.com

Intro
e|----------------------------------------------------------------------|
B|----------------------------------------------------------------------|
G|11-9-6~-11-9-6~-11-9-6-4-6-4-12-12-12--11-9-6-9-11--9-6-9-11-9-6-9--4-|
D|----------------------------------------------------------------------|
A|-9-7-4~--9-7-4~--9-7-4-2-4-2-10-10-10---9-7-4-7--9--7-4-7--9-7-4-7--2-|
E|----------------------------------------------------------------------|

e|----------------------|
B|----------------------|
G|6-4-121212-11~~~~-11--|
D|----------------------|
A|4-2-101010--9~~~~--9--|
E|----------------------|

Verse (Rythm is most likely wrong)
e|---------------------------------------------------|
B|---------------------------------------------------|
G|----------------2------4-----44444-----------------|
D|444444444444444-2--2---4--4--44444-----------------|
A|444444444444444-0--2---2--4--66666-----------------|
E|222222222222222----0------2------------------------|

Chorus (Rythm is most likely wrong)
e|------------------------------------------------------------|
B|------------------------------------------------------------|
G|-44444444--77777777--14-14-16--16--16-13-13-13-13-----------|
D|-44444444--77777777-----------------------------------------|
A|-22222222--55555555--12-12-14--14--14-11-11-11-11-----------|
E|------------------------------------------------------------|

e|---------------------------------------------------------------------------|
B|---------------------------------------------------------------------------|
G|-44444444-77777777-------------------11-11-11------------------------------|
D|-44444444-77777777-77777777-00000000-11-11-11------------------------------|
A|-22222222-55555555-77777777-00000000--9--9--9------------------------------|
E|-------------------55555555-22222222---------------------------------------|

Bridge
e|---------------------------------------------------------------------------|
B|---------------------------------------------------------------------------|
G|-------------------111111~~-1111-------------------------------------------|
D|-4~---444~~--4--4----------------------------------------------------------|
A|-4~---444~~--4--4---9-9-9~~--9-9-------------------------------------------|
E|-2~---222~~--2--2----------------------------------------------------------|


=========

SHADOWS OF DEFEAT - Good Riddance

By:Brandon Frankel (strungout82@anti-social.com)

Intro
e|----------------------------------|---------------------------------|
B|----------------------------------|---------------------------------|
G|11-9----11-9----11-9-----------11-|-11-9----9-11-9----9-11-9----9---|
D|11-9-11-11-9-11-11-9-11-9-11-9-11-|-11-9-11-9-11-9-11-9-11-9-11-9---|
A|-9-7-11--9-7-11--9-7-11-9-11-9--9-|--9-7-11-7--9-7-11-7--9-7-11-7---|
E|------9-------9-------9-7--9-7----|-------9---------9---------9-----|

e|--------------------------------------------------------------------|
B|--------------------------------------------------------------------|
G|--------11----------------------------------------------------------|
D|-9-11-9-11----------------------------------------------------------|
A|-9-11-9--9----------------------------------------------------------|
E|-7--9-7-------------------------------------------------------------|
[ Tab from: http://www.guitartabs.cc/tabs/g/good_riddance/shadows_of_defeat_tab.html ]
Verse (x2)
e|--------------------------------------------------------------------|
B|--------------------------------------------------------------------|
G|-----------------4---6----------------------------------------------|
D|-4-4-4-4-4-4-4-4-4-2-6-2-4-4-4-4------------------------------------|
A|-4-4-4-4-4-4-4-4-2-2-4-2-4-4-4-4------------------------------------|
E|-2-2-2-2-2-2-2-2---0---0-2-2-2-2------------------------------------|

Chorus
e|-----------------5-5-5-5-7-4-4-4-4----------------------------------|
B|--------------------------------------------------------------------|
G|-4-4-4-4-7-7-7-7-------------------4-4-4-4-7-7-7-7-----------11-----|
D|-4-4-4-4-7-7-7-7-------------------4-4-4-4-7-7-7-7-7-7-7-7-2-11-----|
A|-2-2-2-2-5-5-5-5-------------------2-2-2-2-5-5-5-5-7-7-7-7-2--9-----|
E|---------------------------------------------------5-5-5-5-0--------|

These are all the parts of the song, now all you need to do is figure out
where they go. If you have any guitar skills at all you can do it. 


==========


SHADOWS OF DEFEAT - Good Riddance

By: Sim (simonrac@globetrotter.qc.ca)

Intro : 
e|--------------------------------------------------------------------|
B|--------------------------------------------------------------------|
G|--------------------------------------------------------------------|
D|---4-2-----4-2-----4-2------------7-7-7--4-2---2--4-2---2--4-2---2--|
A|-------4-------4-------4--2-4-2--------------4--------4--------4----|
E|--------------------------------------------------------------------|

e|--------------------------------------------------------------------|
B|--------------------------------------------------------------------|
G|------------------------4-------------------------------------------|
D|-------7-7-7-4----------4-------------------------------------------|
A|-2-4-2------------------2-------------------------------------------|
E|--------------------------------------------------------------------|

Verse : x2
e|-----------------------------11-11-11-11----------------------------|
B|-----------------------------11-11-11-11----------------------------|
G|---------------7---9---11----11-11-11-11----------------------------|
D|--4--4--4--4---7-7-9-9-11-------------------------------------------|
A|--4--4--4--4---5-7-7-9--9-------------------------------------------|
E|--2--2--2--2-----5---7----------------------------------------------|

Chorus : 
e|--------------------------------------------------------------------|
B|---------------------10-12-9----------------------------------------|
G|--4-4-4-4--7-7-7-7--------------4-4-4-4--7-7-7-7--------------------|
D|--4-4-4-4--7-7-7-7--------------4-4-4-4--7-7-7-7--7-7-7-7--4-4-4-4--|
A|--2-2-2-2--5-5-5-5--------------2-2-2-2--5-5-5-5--7-7-7-7--4-4-4-4--|
E|--------------------------------------------------5-5-5-5--2-2-2-2--|

e|--------------------------------------------------------------------|
B|--------------------------------------------------------------------|
G|-11-11-11-----------------------------------------------------------|
D|-11-11-11-----------------------------------------------------------|
A|--9--9--9-----------------------------------------------------------|
E|--------------------------------------------------------------------|

Bridge : 
e|--------------------------------------------------------------------|
B|--------------------------------------------------------------------|
G|--------------------------------------------------------------------|
D|--4-----------------4----4----4-4--4--x-x-x--4--------------4-4-4-4-|
A|--4---pick slide----4----4---------4--x-x-x--4---pick-slide---------|
E|--2-----------------2----2---------2--x-x-x--2----------------------|


Play in this order : Intro - Verse - Chorus - Bridge - Chorus
Comments