Good Matthew - Double Life Chords & Tabs

 

Double Life Chords & Tabs

Good Matthew Chords & Tabs

Version: 1 Type: Tab 0 ratings
1 star 2 stars 3 stars 4 stars 5 stars
comments

Double Life Tab

   
Song: Double Life
Artist: Matthew Good
Album: Avalanche
     (tabbed by dan barisow - barisow@hotmail.com)

Intro:
eb---------------------------------------
bb---------------------------------------
gb---------------------------------------
db---------------------------------------
ab---7-7-7-7-7-7-7-7-5-5-5-5-4-4-5-4-5---
Eb---------------------------------------

eb---------------------------------------
bb--------------------------------------- 
gb--------------------------------------- 
db--------------------------------------- 
ab---7-7-7-7-9-9-9-9-5-5-5-5-4-4-5-4-5---
Eb---------------------------------------
[ Tab from: http://www.guitartabs.cc/tabs/g/good_matthew/double_life_tab.html ]
Verse:
eb---------------------------------------
bb--------------------------------------- 
gb--------------------------------------- 
db--------------------------------------- 
ab---7-7-7-7-9-9-9-9-5-5-5-5-4-4-5-4-5---
Eb---------------------------------------  2X

eb---------------------------------------
bb--------------------------------------- 
gb--------------------------------------- 
db--------------------------------------- 
ab---5-5-5-5-7-7-7-7-9-9-9-9-8-8-9-8-9---
Eb---------------------------------------  2X 

(repeat twice)


Chorus:  

     D   G       D   G   F#
eb---3---3-------3---3---2----------------
bb---2---0-------2---0---2---------------- 
gb---3---0-------3---0---3---------------- 
db---0---0-------0---0---4---------------- 
ab---x---2-------x---2---4----------------
Eb---x---3-------x---3---2----------------   

(repeat twice)


Comments