Good Charlotte - Wondering Chords & Tabs

 

Wondering Chords & Tabs

Good Charlotte Chords & Tabs

Version: 7 Type: Tab 0 ratings
1 star 2 stars 3 stars 4 stars 5 stars
comments

Wondering Tab

Good Charlotte - "Wondering"
tabs by beli8 (anabella_8@hotmail.com)

****DROP D TUNING****


INTRO 1 (4x) 
|-----------------------------------------|-------------
|-----------------------------------------|-------------
|-----------------------------------------|--3-3-3-3-3--
|-----4-----------------------------------|--3-3-3-3-3--
|-2-2-----------2---------6---------2-----|--1-1-1-1-1--
|-------1---2-2---1--/6-6---1---2-2---6---|-------------

INTRO 2 (2x)
|------2-0------------------------------|
|--------------5-4-----4-----4----------|
|--4-4-------------------4-6---6-4------|
|--4-4-----2-2-----6-6------------------|
|--2-2-----2-2--------------------------|
|----------2-2--------------------------|

VERSE - palm muted  
|-------------------------------------|
|-------------------------------------|
|-------------------------------------|
|-4-4-x-------------------------------|
|-2-2-x-0-2-2-x--0-6-6-x--0-2-2--4-4--|
|-------0-2-2-x--0-6-6-x--0-2-2--4-4--|

PRE CHORUS (1x)
|-------0-----------------------------|
|-------4-----------------------------|
|----4--4------4----------------------|
|-6--4--2---6--4--1-------------------|
|-6--2------6--2--1-------------------|
|-6---------6-----1-------------------|

[ Tab from: http://www.guitartabs.cc/tabs/g/good_charlotte/wondering_tab_ver_7.html ]
CHORUS
play this 3 times
|---------------------------------------------------|
|---------------------------------------------------|
|-4-4-x-x-x-x---------------------------------------|
|-4-4-x-x-x-x--2-2-x-x-x-x--6-6-x-x-x-x--2-2--4-4---|
|-2-2-x-x-x-x--2-2-x-x-x-x--6-6-x-x-x-x--2-2--4-4---|
|--------------2-2-x-x-x-x--6-6-x-x-x-x--2-2--4-4---|

play this 1 time
|-------------------------------------|
|-------------------------------------|
|-4-4-x-x-x-x-------------------------|
|-4-4-x-x-x-x--2-2-x-x-x-x--1-1-1-1-1-|
|-2-2-x-x-x-x--2-2-x-x-x-x--1-1-1-1-1-|
|--------------2-2-x-x-x-x--1-1-1-1-1-|


verse (4x)
pre chrous (1x)
chorus
intro 2 (2x)

SOLO
-----4-2---4-2---4-2-4--/7-6-4-2--3--------
------------------------------------4-2----
-4-4-----4-----4------------------------3--
-------------------------------------------
-------------------------------------------
-------------------------------------------


|----------------|---------------------------
|----------------|---------------------------
|*--------------*|---------------------------
|*-2-2--4-4--6--*|---2-2-4-4-6---1-----------
|--2-2--4-4--6---|---2-2-4-4-6---1-----------
|--2-2--4-4--6---|---2-2-4-4-6---1-----------
"dont tell me..."

intro 1 (2x)
chorus 2nd part

fill
------4-------6-4----------
----4---8-6-8--------------
--6------------------------
---------------------------
---------------------------
---------------------------

chorus 1 step higher (1x)

ending fill
--17--13---------------------------
---------13-11-10------------------
------------------10---------3-----
---------------------10------3-----
-------------------------12--1-----
-----------------------------------
"wonderiiiiing"
Comments