Good Charlotte - Wondering Chords & Tabs

 

Wondering Chords & Tabs

Good Charlotte Chords & Tabs

Version: 2 Type: Tab 0 ratings
1 star 2 stars 3 stars 4 stars 5 stars
comments

Wondering Tab

tabbed by ME
band:good charlotte
song:wondering
album:young and hopeless
standard tuning
\-slide up
/-slide down
~-let ring 

intro guitar 1 
e---------------------------------------------------
B---------------------------------------------------
G---------------------------------------------------
D-----5--------------------------------------------- X 4 (0:00)
A-3-3---------3-------7-------3-0-------------------
E-------0-1-1---0-5-5---0-1-1-----------------------

intro guitar 
e---3-1---1-0---0-----0---------------------------
B-----------------1-3---3-1-----------------------
G-5-----------------------------------------------     (0:17)    
D-5-----3-----7-----------------------------------  X 2 on the 2nd
A-3-----3-----7----------------------------------- time let the 1 ring
E-------1-----5-----------------------------------

verse riff
e-8---10-8-12-8-------------------------------------
B---8-----------------------------------------------
G--------------------------------------------------- X 4 (0:34)
D---------------------------------------------------
A---------------------------------------------------
E---------------------------------------------------
[ Tab from: http://www.guitartabs.cc/tabs/g/good_charlotte/wondering_tab_ver_2.html ]
pre-chorus
e---------------------------------------------------
B---------------------------------------------------
G------5---------------5---------77\55\33-----------
D-7----5-x8-3-----7----5-x8-2----77\55\33\22-------- (0:43)
A-7-x8-3----3-x16-7-x8-3----2-x8-55\33\11\22--------
E-5---------1-----5---------0-------------00--------

chorus
e---------------------------------------------------
B---------------------------------------------------
G-5-------------------------------------------------
D-5-x4-3----7----3----5----------------------------- x4 (1:00)
A-3----3-x4-7-x4-3-x2-5-x2--------------------------
E------1----5----1----3-----------------------------

solo
e-5-3-5-3-5-3-5/8/7-7/5-5/3-3-----------------------
B-----------------------------5-5-3-3---------------
G-------------------------------------4-4----------- (2:16)
D-----------------------------------------4---------
A-------------------------------------------2-------
E---------------------------------------------------

bridge
e---------------------------------------------------
B---------------------------------------------------
G---------------------------------------------------
D-33-55-77777777------------------------------------ x 4 (2:24)
A-33-55-77777777------------------------------------
E-11-33-55555555------------------------------------

end on 
e-----
B-----
G-----
D-3---
A-3---
E-1---


order:
intro 1 (0:00)x4
intro 2 (0:17)x2
verse riff (0:34)x4
pre-chorus (0:43)
chorus (0:59)x4
verse riff (1:16)x8
pre-chorus (1:33)
chorus (1:50)x4
intro 2 (2:08)x2
solo (2:16)
bridge (2:24)x4
intro 1 (2:41)x2
pre-chorus (2:49)
chorus (3:01)x4
end (3:19)
Comments