Good Charlotte - Wondering Chords & Tabs

 

Wondering Chords & Tabs

Good Charlotte Chords & Tabs

Version: 1 Type: Tab 1 rating
1 star 2 stars 3 stars 4 stars 5 stars
comments

Wondering Tab

Alright, after looking for this song for like a month me and the other
guitarist in my band decided to figure it out on our own.  While GC
actually as two guitarists, we've written this song out so it can be 
played by just one person.  Enjoy.

Intro, 4x
-------------------------------------------------------------
-------------------------------------------------------------
-------------------------------------------------------------
-----4---------------------------------------1----------------
-2-2---2------2--------6--------2------------1----------------
----------2-2---2--6-6---6--2-2---2----------1----------------
(on the fourth time through play the power chord as intro into
the riff)

Main Riff, 2x
-------------------------------------------------------------
-0-0-7-5--0-5-4--0-4-0-2-4-2-*0--(*play this note only on the
----------------------------------second time through riff)--
-------------------------------------------------------------
-------------------------------------------------------------
-------------------------------------------------------------

Verse, 2x
----------------11-------------------------------------------
-12----14--12------12----12----14-12---9--12-----------------
----11----------------------11-------------------------------
-------------------------------------------------------------
-------------------------------------------------------------
-------------------------------------------------------------

Prechorus
-------------------------------------------------------------
-------------------------------------------------------------
-----4-----------4-------------------------------------------
--6--4--2-----6--4--1----------------------------------------
--6--2--2-----6--2--1----------------------------------------
--6-----2-----6-----1----------------------------------------
[ Tab from: http://www.guitartabs.cc/tabs/g/good_charlotte/wondering_tab.html ]
Chorus
-------------------------------------------------------------
-------------------------------------------------------------
--4------------4------------4------------4-------------------
--4--2--6--2---4--2--6--2---4--2--6--4---4--2--1-------------
--2--2--6--2---2--2--6--2---2--2--6--4---2--2--1-------------
-----2--6--2------2--6--2------2--6--4------2--1-------------

Repeat Verse 4x
(on fourth time through verse there are two pick up power
chords into the prechorus in place of the 9 to 12 fret notes)
-------------------------------------------------------------
-------------------------------------------------------------
-------------------------------------------------------------
--2--4-------------------------------------------------------
--2--4-------------------------------------------------------
--2--4-------------------------------------------------------

Repeat Prechorus
Repeat Chorus
Repeat Main Riff, and follow with:
-------------------------------------------------------------
-0-0-9-7--9-7--9-7--9--12-11-9-7-8-8-------------------------
-------------------------------------8-8-6-6-3-3-------------
-------------------------------------------------------------
-------------------------------------------------------------
-------------------------------------------------------------

Bridge
-------------------------------------------------------------
-------------------------------------------------------------
-------------------------------------------------------------
--2--4--6---2--4--6---2--4--6--1-----------------------------
--2--4--6---2--4--6---2--4--6--1-----------------------------
--2--4--6---2--4--6---2--4--6--1-----------------------------

Repeat Intro, 2x
Repeat Chorus in this pattern
-------------------------------------------------------------
-------------------------------------------------------------
--4------------4---------------------------------------------
--4--2--6--2---4--2---1--------------------------------------
--2--2--6--2---2--2---1--------------------------------------
-----2--6--2------2---1--------------------------------------

There is a picking pattern moving into this conclusion, but 
I don't know what it is

Conclusion
-------------------------------------------------------------
-------------------------------------------------------------
--6------------6------------6------------6-------------------
--6--4--8--4---6--4--8--8---6--4--8--6---6--4--3----8--------
--4--4--8--4---4--4--8--8---4--4--8--6---4--4--3----8--------
-----4--8--4------4--8--8------4--8--6------4--3----8-------
Comments