Good Charlotte - Wondering Chords & Tabs

 

Wondering Chords & Tabs

Good Charlotte Chords & Tabs

Version: 3 Type: Bass Tab 0 ratings
1 star 2 stars 3 stars 4 stars 5 stars
comments

Wondering Bass Tab

good chalotte wondering
tuneing-EADG
submitted by Bassist91

after guitar intro
G---------------------------------|
D---------------------------------| 2x
A---3-3---------------------------|
E-------1-1--5-5--1-1-3-3---------|

verse(no guitar...just bass)
G---------------------------------|
D---------------------------------| 4x
A---3-3--3------------------------|
E----------1-1--1--5-5--5--1-1--1-|

Pre Chorus:
G-----------------------------------|
D-----------------------------------|
A----------3-3-3-3------------------|
E-5-5-5-5-----------1-1-1-1-1-1-1-1-|

G-----------------------------------|
D-----------------------------------|
A----------3-3-3-3--7-7-7-7-7-7-7-7-|
E-5-5-5-5---------------------------|

Chorus:
G------------------------------------|
D------------------------------------|3x
A-3-3--------------------------------|
E------1-1--5-5--1-1-4-4-------------|

G------------------------------------|
D------------------------------------|
A-3-3---------7-7-7-7-7-7-7-7--------|
E-------1-1--------------------------|

Verse
Pre Chorus
Chorus
repeat chorus
after guitar Intro 3x (the 4th time play this...)
[ Tab from: http://www.guitartabs.cc/tabs/g/good_charlotte/wondering_btab_ver_3.html ]
G------------------------------------|
D------------------------------------|
A---3-3--------7-7-7-7---------------|
E--------1-1-------------------------|

G------------------------------------|
D------------------------------------|2x
A------------------------------------|
E---1-1--3-3--5-5-5-5----------------|

G------------------------------------|
D------------------------------------|
A---7-7-7-7-7-7-7-7------------------|
E------------------------------------|

guitar intro
bass comes in on "if you don't wanna say..."
G------------------------------------|
D------------------------------------|
A---3-3------------------------------|
E--------1-1--5-5--1-1-3-3-----------|

G------------------------------------|
D------------------------------------|
A---3-3-------7-7-7-7-7-7-7-7--------|
E--------1-1-------------------------|

key change... chorus
G------------------------------------|
D------------------------------------| 3x
A---5-5------------------------------|
E---------3-3--7-7--3-3-5-5----------|

G------------------------------------|
D------------------------------------|
A---5-5--------------------------2---|
E--------3-3--2-2-2-2-2-2-2-2--------|

have fun
basist91 
David Townsend
Comments