Good Charlotte - Wondering Chords & Tabs

 

Wondering Chords & Tabs

Good Charlotte Chords & Tabs

Version: 1 Type: Bass Tab 0 ratings
1 star 2 stars 3 stars 4 stars 5 stars
comments

Wondering Bass Tab

after guitar intro
G---------------------------------|
D---------------------------------| 2x
A---2-2---------------------------|
E-------0-0--4-4--0-0-2-2---------|

verse(no guitar...just bass)
G---------------------------------|
D---------------------------------| 4x
A---2-2--2------------------------|
E----------0-0--0--4-4--4--0-0--0-|

Pre Chorus:
G-----------------------------------|
D-----------------------------------|
A----------2-2-2-2------------------|
E-4-4-4-4-----------0-0-0-0-0-0-0-0-|

G-----------------------------------|
D-----------------------------------|
A----------2-2-2-2--6-6-6-6-6-6-6-6-|
E-4-4-4-4---------------------------|

Chorus:
G------------------------------------|
D------------------------------------|3x
A-2-2--------------------------------|
E------0-0--4-4--0-0-3-3-------------|

G------------------------------------|
D------------------------------------|
A-2-2---------6-6-6-6-6-6-6-6--------|
E-------0-0--------------------------|

Verse
Pre Chorus
Chorus
after guitar Intro 3x (the 4th time play this...)
[ Tab from: http://www.guitartabs.cc/tabs/g/good_charlotte/wondering_btab.html ]
G------------------------------------|
D------------------------------------|
A---2-2--------6-6-6-6---------------|
E--------0-0-------------------------|

G------------------------------------|
D------------------------------------|3x
A------------------------------------|
E---0-0--2-2--4-4-4-4----------------|

G------------------------------------|
D------------------------------------|
A---6-6-6-6-6-6-6-6------------------|
E------------------------------------|

guitar intro
bass comes in on "if you don't wanna say..."
G------------------------------------|
D------------------------------------|
A---2-2------------------------------|
E--------0-0--4-4--0-0-2-2-----------|

G------------------------------------|
D------------------------------------|
A---2-2-------6-6-6-6-6-6-6-6--------|
E--------0-0-------------------------|

key change... chorus
G------------------------------------|
D------------------------------------| 3x
A---4-4------------------------------|
E---------2-2--6-6--2-2-4-4----------|

G------------------------------------|
D------------------------------------|
A---4-4--------------------------1---|
E--------2-2--1-1-1-1-1-1-1-1--------|

that is 100% correct!!!
Comments