Good Charlotte - We Believe Chords & Tabs

 

We Believe Chords & Tabs

Good Charlotte Chords & Tabs

Version: 3 Type: Tab 0 ratings
1 star 2 stars 3 stars 4 stars 5 stars
comments

We Believe Tab

   
Song: We Beleive
Band: Good Charlotte
Album: The Chronicles Of Life And Death

Gtr I Billy Martin: Tuning 1/2 Step Down (eb,Bb,Gb,Db,Ab,eb)

Gtr II Benji Madden: Tuning 1/2 Step Down (eb,Bb,Gb,Db,Ab,eb)




Intro/verse, Gtr I x 5

eb:|----3--3--3-3-3---3--3--3-3-3-|
Bb:|----3--3--3-3-3---3--3--3-3-3-|
Gb:|------------------------------|
Db:|--2-------------0-------------|
Ab:|------------------------------|
Eb:|------------------------------|


eb:|-----3--3--3-3-3---3--3--3-3-3-|
Bb:|-----3--3--3-3-3---3--3--3-3-3-|
Gb:|-------------------------------|
Db:|-------------------------------|
Ab:|---3-------------3-------------|
Eb:|-------------------------------|


  
Verse Gtr II x 3
                                                                
                                          
eb:|--0--0--0--0-0-0---2---2--2-2-2-|
Bb:|--0--0--0--0-0-0---3---3--3-3-3-|
Gb:|--0--0--0--0-0-0---2---2--2-2-2-|
Db:|--2--2--2--2-2-2---0---0--0-0-0-|
Ab:|--2--2--2--2-2-2----------------|
Eb:|--0--0--0--0-0-0----------------|

eb:|------------------------------|
Bb:|--1--1--1-1-1---1--1-1-1------|
Gb:|--0--0--0-0-0---0--0-0-0------|
Db:|--2--2--2-2-2---2--2-2-2------|
Ab:|--3--3--3-3-3---3--3-3-3------|
Eb:|------------------------------|


      
                  
              

   Chorus, Gtrs I & II

eb:|------0----0----0-0-0--3----3----3-3-3--2-----2---2-2-2------|
Bb:|------0----0----0-0-0--3----3----3-3-3--3-----3---3-3-3--1-1-|
Gb:|------0----0----0-0-0--0----0----0-0-0--2-----2---2-2-2--0-0-|
Db:|------2----2----2-2-2--0----0----0-0-0--0-----0---0-0-0--2-2-|
Ab:|------2----2----2-2-2--2----2----2-2-3-------------------3-3-|
Eb:|------0----0----0-0-0--3----3----3-3-3-----------------------|


Repeat verse

Repeat chorus
   

  Bridge Gtrs I&II (part 1) 
[ Tab from: http://www.guitartabs.cc/tabs/g/good_charlotte/we_believe_tab_ver_3.html ]
     Em       G       C           Em       G      C        D
eb:|--0-------3--------------------0-------3---------------2-|
Bb:|--0-------3-------1------------0-------3-------1-------3-|
Gb:|--0-------0-------0------------0-------0-------0-------2-|
Db:|--2-------0-------2------------2-------0-------2-------0-|
Ab:|--2-------2-------3------------2-------2-------3---------|
Eb:|--0-------3--------------------0-------3-----------------|
   
    (part 2)  

             Em           G               C                              
   So this world, is to much, for you to take, just lay down and follow me,
   Em       G              C             D
   I'll be everything you need, in every way  


 Play chorus


  At the end of the last chorus Gtr I Plays this  

                                                 
eb:|----------------------------------------------------------|
Bb:|--8-7-5-8-7-5-8-7-5-8-7-5-7-8-7-8-7-5-8-7-5-8-7-5-8-7-5-7-|
Gb:|----------------------------------------------------------|
Db:|----------------------------------------------------------|
Ab:|----------------------------------------------------------|
Eb:|----------------------------------------------------------|


eb:|------------------------|
Bb:|8-7---8-7---8-7---8-7---|
Gb:|----7-----7-----7-----7-|
Db:|------------------------|
Ab:|------------------------|
Eb:|------------------------|



eb:|-----------------------------------------|
Bb:|-8-7---7-8-7---8-7---8-7---8-7---8-7---7-|
Gb:|-----7-------7-----7-----7-----7-----7---|
Db:|-----------------------------------------|
Ab:|-----------------------------------------|
Eb:|-----------------------------------------|

                                                     
                            
eb:|---------------------|
Bb:|-8-7---8-7---8-7---7-|
Gb:|-----5-----5-----5---|
Db:|---------------------|
Ab:|---------------------|
Eb:|---------------------|


eb:|----------------------------------------------------------|
Bb:|8-7---8-7---8-7---8-7---7-8-7---8-7---8-7---8-7---8-7---7-|
Gb:|----7-----7-----7-----7-------7-----7-----7-----7-----7---|
Db:|----------------------------------------------------------|
Ab:|----------------------------------------------------------|
Eb:|----------------------------------------------------------|

Outro:

eb:|---------------------------|
Bb:|-8p7p5-8p7p5-8p7p5-8p7p5-5-|
Gb:|---------------------------|
Db:|---------------------------|
Ab:|---------------------------|
Eb:|---------------------------|

Any questions or stuff etc email me at kirk_hammet_2nd@msn.com or
so_long_and_goodnight5@hotmail.co.uk
Comments