Good Charlotte - We Believe Chords & Tabs

 

We Believe Chords & Tabs

Good Charlotte Chords & Tabs

Version: 2 Type: Tab 0 ratings
1 star 2 stars 3 stars 4 stars 5 stars
comments

We Believe Tab

Intro/Verse:

|-------------------------------|
|------7-77-77--------7-77-77---|
|------6-66-66--------6-66-66---| 
|-------------------------------|
|--6---------------4------------|
|-------------------------------|

------------------------------|
------7-77-77-------7-77-77---|
------6-66-66-------6-66-66---|
------------------------------|
--2---------------2-----------|
Chorus:
[ Tab from: http://www.guitartabs.cc/tabs/g/good_charlotte/we_believe_tab_ver_2.html ]
|---------------------------------|
|---------------------------------|
|---4-----------------------------|
|---4-x16---4-------6-------4-----|
|---2-------4x16---6--x16--4-x16-|
|-----------2-------4-------2-----|
'We Believe..'

On Second verse start with:

|------------------------------|
|------7-77-77-----------------|
|------6-66-66-----------------|
|------------------------------| x2
|---2--------------------------|
|------------------------------|
'same, human in..'

then just continue with the verse

Bridge:

|-----------------|----|
|-----------------|----|
|---8~---11~--4~--|--6~|
|---x----x----x---|--x-|
|---6~---9~---2~--|--4~|
|-----------------|----|

On the first time you play the verse,
hold the 3rd chord for twice as long 
and don't play the last chord Then all 
the other times you play the last chord 
at the end also
Comments