Good Charlotte - We Believe Chords & Tabs

 

We Believe Chords & Tabs

Good Charlotte Chords & Tabs

Version: 1 Type: Chords 0 ratings
1 star 2 stars 3 stars 4 stars 5 stars
comments

We Believe Chords

   
Well.. this is the first tab I put up here, so don't have any high expectation.:b
Yep.. it's the whole song and I guess it sounds kinda right (I'm sure it's not
the way they play it)..but it sounds good when I play it.:D So I hope you enyoj
it and if you have any questions or if you just wanna complain, send me an
e-mail. Have fun!

oh! one more thing. The strumming... I guess it's impossible to know how to do the
strumming just by looking at this tab.. but http://www.mest.it/gcitalia/english/
just put up an audio file on their site(We believe acoustic version)and if you
listen to that, I'm sure you'll get the strumming right!

Hey.. I updated this tab again.I forgot to tell you
that it's "Tuned down 1/2 step". You don't need to do that though, unless
you wanna play along with the song :)

"Tune down 1/2 step"


--------------------------------------------------------------------------
   EM   D   C    Cadd9    G 
   -0- -2- -0-    -3-    -3-
   -0- -3- -1-    -3-    -3-
   -0- -2- -0-    -0-    -0-
   -2- -0- -2-    -2-    -0-
   -2- -x- -3-    -3-    -2-
   -0- -x- -0-    -x-    -3-
--------------------------------------------------------------------------
 Intro x2

eb|---3-3-3-3-3-3-3----3-3-3-3-3-3-3---3-3-3-3-3-3-3---3-3-3-3-3-3-3-------|
Bb|---3-3-3-3-3-3-3----3-3-3-3-3-3-3---3-3-3-3-3-3-3---3-3-3-3-3-3-3-------|
Gb|---0-0-0-0-0-0-0----0-0-0-0-0-0-0---0-0-0-0-0-0-0---0-0-0-0-0-0-0-------|
Db|--2---------------0-----------------------------------------------------|
Ab|-----------------------------------3---------------3--------------------|
Eb|------------------------------------------------------------------------|


Verse
[ Tab from: http://www.guitartabs.cc/tabs/g/good_charlotte/we_believe_crd.html ]
   EM                   D    
there's a woman crying out tonight
 C
her world has changed she asked 
		 EM                     D
God why her only son has died and her doughter cries
            C
she can't sleep at night

    EM                            D           
downtown another day for all the suits and ties
         C
another war to fight there's no regard for life
               EM
how can they sleep at night
		 D
how can we make things right
	      C
just want to make this right
--------------------

Chorus

   Cadd9
we believe, we believe,
   G
we believe, we believe
     D                          Cadd9     EM
we believe, we believe in this love

--------------------

Verse
    D           C
we are all the same
       EM          D               C
human in all our ways and all our plain
          EM				      D
so let it be, there's a love that could fall down like rain
        C                       
let us see, let forgiveness wash away the pain
         EM                                          D 
what we need, and no one really knows what they are searching for
         C
we believe, this world is crying for so much more

------------------
Chorus x2
------------------

 EM G C
 EM G C

------------------
         EM            G               C
so this world, is too much for you to take
              C              EM
just lay it down and follow me
          G              C
i'll be everything you need
          D
in every way
--------------------
Chorus
--------------------
Outro
 
Cadd9
(In this love)
We believe
 G
(In this love)
We believe
 D
(In this love)
We believe
 C
(In this love)
Comments