Good Charlotte - Walk Away Chords & Tabs

 

Walk Away Chords & Tabs

Good Charlotte Chords & Tabs

Version: 4 Type: Tab 0 ratings
1 star 2 stars 3 stars 4 stars 5 stars
comments

Walk Away Tab

This is the tab for Walk Away. I'm 100% sure that this is correct coz I watched Benji
play and this is what he came up with.
 
Intro
e|---------------------------------------------------------------|
B|---------------------------------------------------------------|
G|---------------------------------------------------------------|
D|-4-4--5-5--9-9--7-7-7-7----------------------------------------|x 4
A|-4-4--5-5--9-9--7-7-7-7----------------------------------------|
E|-2-2--3-3--7-7--5-5-5-5----------------------------------------|
 
Verse  
e|---------------------------------------------------------------|
B|---------------------------------------------------------------|
G|-7-------5--------3---------7----------------------------------|
D|-9-x15---7--x15---5--x15----7--X15-----------------------------|X 2
A|-9-------7--------5---------9----------------------------------|
E|---------------------------------------------------------------|
   (All palm muted)

 Pre Chorus  
e|---------------------------------------------------------------|
B|---------------------------------------------------------------|
G|---------------------------------------------------------------|
D|-4-4--5-5--9-9--5-5--------------------------------------------|x 3
A|-4-4--5-5--9-9--5-5--------------------------------------------|
E|-2-2--3-3--7-7--3-3--------------------------------------------|

 Chorus  
e|---------------------------------------------------------------|
B|---------------------------------------------------------------|
G|-7-7-7-7-7-7-7-------------------------------------------------|
D|-7-7-7-7-7-7-7--5-5-5-5-5-5-5--9-9-9-9-9-9-9--4--5--9--5-------|
A|-5-5-5-5-5-5-5--5-5-5-5-5-5-5--9-9-9-9-9-9-9--4--5--9--5-------|
E|----------------3-3-3-3-3-3-3--7-7-7-7-7-7-7--2--3--7--3-------|
[ Tab from: http://www.guitartabs.cc/tabs/g/good_charlotte/walk_away_tab_ver_4.html ]
 Bridge 
e|---------------------------------------------------------------|
B|---------------------------------------------------------------|
G|---------------------------------------------------------------|
D|-5-5-5-5-5-5--4-4-4-4-4-4----9-9-9-9-9-9-9-9--7-7-7-7-7-7-7-7--|
A|-5-5-5-5-5-5--4-4-4-4-4-4----9-9-9-9-9-9-9-9--7-7-7-7-7-7-7-7--|
E|-3-3-3-3-3-3--2-2-2-2-2-2----7-7-7-7-7-7-7-7--5-5-5-5-5-5-5-5--|
                               (Hammer)________________________

e|---------------------------------------------------------------|
B|---------------------------------------------------------------|
G|---------------------------------------------------------------|
D|-5-5-5--4-4-4----9-9-9-9-9-9-9-9--7-7-7-7-7-7-7-7--------------|
A|-5-5-5--4-4-4----9-9-9-9-9-9-9-9--7-7-7-7-7-7-7-7--------------|
E|-3-3-3--2-2-2----7-7-7-7-7-7-7-7--5-5-5-5-5-5-5-5--------------|
                  (Hammer)_________________________

e|---------------------------------------------------------------|
B|---------------------------------------------------------------|
G|---------------------------------------------------------------|
D|---------------------------------------------------------------|
A|-5555555555555-------------------------------------------------|
E|------------------333333333333333--77777777777777--------------|
 (All palm muted)

e|---------------------------------------------------------------|
B|---------------------------------------------------------------|
G|---------------------------------------------------------------|
D|-4--5--9--5----------------------------------------------------|
A|-4--5--9--5----------------------------------------------------|
E|-2--3--7--3----------------------------------------------------|

Order:
Intro x4
Verse x2
Pre Chorus x3
Chorus x1
Verse x2
Pre Chorus x2
Chorus x2
Bridge x1
Chorus x3

That's about it. Enjoy!
Comments