Good Charlotte - Walk Away Chords & Tabs

 

Walk Away Chords & Tabs

Good Charlotte Chords & Tabs

Version: 2 Type: Tab 0 ratings
1 star 2 stars 3 stars 4 stars 5 stars
comments

Walk Away Tab

This is my first tab so if it's wrong don't bitch.
It's their new song they performed at the mtv japan awards.
GC fans will know what i'm on about. anyway, here it is.


INTRO:

------------------------------------------|
------------------------------------------|
------------------------------------------| x2
---3--3----4--4----8--8----6--6-----------|
---3--3----4--4----8--8----6--6-----------|
---1--1----2--2----6--6----4--4-----------|


VERSES:

--------------------------------------------------------------|
--------------------------------------------------------------|
--------------------------------------------------------------| x2
--8-X16---6-X16---4-X16---3--3----4--4----8--8----6--6--------|
--8-------6-------4-------3--3----4--4----8--8----6--6--------|
--6-------4-------2-------1--1----2--2----6--8----4--4--------|

[ Tab from: http://www.guitartabs.cc/tabs/g/good_charlotte/walk_away_tab_ver_2.html ]
----------------------------------|
----------------------------------|
----------------------------------|  "I was afraid..."
--8--8----4--4----8--8----4--4----| x1
--8--8----4--4----8--8----4--4----|
--6--6----2--2----4--4----2--2----|


CHORUS:

--------------------------------------------------------------|
--------------------------------------------------------------|
--------------------------------------------------------------| x2
--11--X16---4--X16---8--X16---3--3----4--4----8--8----6--6----|
--11--------4--------8--------3--3----4--4----8--8----6--6----|
---9--------2--------6--------1--1----2--2----6--6----4--4----|


--------------------------------------------|
--------------------------------------------|
--------------------------------------------|  "Pray for me now..."
--8--X16---6--X16---4--4--4---3--3--3-------| X2
--8--------6--------4--4--4---3--3--3-------|
--6--------4--------2--2--4---1--1--1-------| 

2nd time do not play 4  or  3  just go into chorus straight away.
                     4      3
                     2      1

That's basically it. If you wanna hear or see the performance of the song,
go to MTV japan. It's in there somewhere.

Peace.
Comments