Good Charlotte - Waldorf Worldwide Chords & Tabs

 

Waldorf Worldwide Chords & Tabs

Good Charlotte Chords & Tabs

Version: 7 Type: Tab 0 ratings
1 star 2 stars 3 stars 4 stars 5 stars
comments

Waldorf Worldwide Tab

   
-------------------------------------------------------------------------------
			     Waldorfworldwide - Good Charlotte
-------------------------------------------------------------------------------
Tabbed by: Quiffy
Email: quiffy_69@hotmail.com

Tuning: Standard

	The bits where I've only written the lyrics are where the tab is the same 
as above it for example verse 1 doesnt change so the tab would be the same. Follow
the tab with the song and it will make sense. Trust me.

Intro: Clean

e|---------------------------------------------------------------------------------|
B|------11-----------10----------8--------------10---------------------------------|
G|---10--------10--------------8------8---10--------10-----------------------------|
D|-8-------x------10------xx8------8----8----10------------------------------------|
A|---------------------------------------------------------------------------------|
E|---------------------------------------------------------------------------------|

e|---------------------------------------------------------------------------------|
B|------11-----------10----------8---------10-10-----10-10-------------------------|
G|---10--------10--------------8------8----10-10-----10-10-------------------------|
D|-8-------x------10------xx8------8-------8--8------8--8--------------------------|
A|---------------------------------------------------------------------------------|
E|---------------------------------------------------------------------------------|
					   ^^DISTORTION!^^
e|---------------------------------------------------------------------------------|
B|---------------------------------------------------------------------------------|
G|------------10-10-xx--88888--xx--10-10--xx------------10-10-xx--88888--xx--10-10-|
D|--88888-xx--10-10-xx--88888--xx--10-10--xx--88888-xx--10-10-xx--88888--xx--10-10-|
A|--88888-xx--8--8--xx--66666--xx--8--8---xx--88888-xx--8--8--xx--66666--xx--8--8--|
E|--66666-xx----------------------------------66666-xx-----------------------------|

e|---------------------------------------------------------------------------------|
B|---------------------------------------------------------------------------------|
G|---------------------------------------------------------------------------------|
D|--8------------------------------------------------------------------------------|
A|--8----------Let ring------------------------------------------------------------|
E|--6------------------------------------------------------------------------------|
          Everythings gonna be alright now     etc...

Verse

		CLEAN
e|-6-----------6--------------8--------8---------6--------6---------8--------8-----|
B|-6-----------6--------------10-------10--------8--------8---------10-------10----|
G|-7-----------7--------------10-------10--------8--------8---------10-------10----|
D|---------------------------------------------------------------------------------|
A|---------------------------------------------------------------------------------|
E|---------------------------------------------------------------------------------|
    Listen up 'cause it ain't nothing funny I wana hot girl and a lil bit of money



e|---------6-----------6------------8--------8-------------------------------------|
B|---------6-----------6------------10-------10------------------------------------|
G|---------7-----------7------------10-------10------------------------------------|
D|---------------------------------------------------------------------------------|
A|---------------------------------------------------------------------------------|
E|---------------------------------------------------------------------------------|
   I wana lil' house where my band can live 'cause 


e|--------------6-----------6----------8-------8-----------------------------------|
B|--------------8-----------8----------10------10----------------------------------|
G|--------------8-----------8----------10------10----------------------------------|
D|---------------------------------------------------------------------------------|
A|---------------------------------------------------------------------------------|
E|---------------------------------------------------------------------------------|
    We're tired of moving every other weekend



e|-----------6--------------6--------------8---------------------------------------|
B|-----------6--------------6--------------10--------------------------------------|
G|-----------7--------------7--------------10--------------------------------------|
D|---------------------------------------------------------------------------------|
A|---------------------------------------------------------------------------------|
E|---------------------------------------------------------------------------------|
    I wanna go to parties where they got no guns,



e|------8---------6---------------6------------8---------8-------------------------|
B|------10--------8---------------8------------10--------8-------------------------|
G|------10--------8---------------8------------10--------10------------------------|
D|---------------------------------------------------------------------------------|
A|---------------------------------------------------------------------------------|
E|---------------------------------------------------------------------------------|
    I wanna rock with my band I wanna have a little fun,


    With thugs and punks and any other other type, 
    Can sing this song and we'll sing it all night (sing it!)



Chorus:  DISTORTION


e|---------------------------------------------------------------------------------|
B|---------------------------------------------------------------------------------|
G|------------10-10-xx--88888--xx--10-10--xx------------10-10-xx--88888--xx--10-10-|
D|--88888-xx--10-10-xx--88888--xx--10-10--xx--88888-xx--10-10-xx--88888--xx--10-10-|
A|--88888-xx--8--8--xx--66666--xx--8--8---xx--88888-xx--8--8--xx--66666--xx--8--8--|
E|--66666-xx----------------------------------66666-xx-----------------------------|
    Everything's gonna be alright now, Everything's gonna be alright,

    Get down stay up all night now,
    Let's do this one more time,
    Everything will be alright
    Everything will be alright, alright


Verse 2: Bass guitar plays till "And I don't wanna run for the president"



All I wanna do is kick the welfare,
All I wanna do is get my share,
All I wanna do is kick the welfare,
All I wanna do is get my share,

		CLEAN
e|--------------------------------------------------------------------------------|
B|----------11------------10------------------------------------------------------|
G|------10------10----10------10--------------------------------------------------|
D|---8----------------------------------------------------------------------------|
A|--------------------------------------------------------------------------------|
E|--------------------------------------------------------------------------------|
    And I don't wanna run for the president,



e|--------------------------------------------------------------------------------|
B|--------8------------10---------------------------------------------------------|
G|-----8-----8-----10------10-----------------------------------------------------|
D|--8-----------------------------------------------------------------------------|
A|--------------------------------------------------------------------------------|
E|--------------------------------------------------------------------------------|
    I just want an honest way to pay my rent,


e|--------------------------------------------------------------------------------|
B|----------11------------10------------------------------------------------------|
G|------10------10----10------10--------------------------------------------------|
D|---8----------------------------------------------------------------------------|
A|--------------------------------------------------------------------------------|
E|--------------------------------------------------------------------------------|
    And I'm tired of the man always shuttin' us down,



e|--------------------------------------------------------------------------------|
B|--------------------------------------------------------------------------------|
G|--------------------------------------------------------------------------------|
D|---8----------------------------------------------------------------------------|
A|--------------------------------------------------------------------------------|
E|--------------------------------------------------------------------------------|
    Tired of my old man 'cause he's never around,


[ Tab from: http://www.guitartabs.cc/tabs/g/good_charlotte/waldorf_worldwide_tab_ver_7.html ]
e|---------6-----------6------------8--------8-------------------------------------|
B|---------6-----------6------------10-------10------------------------------------|
G|---------7-----------7------------10-------10------------------------------------|
D|---------------------------------------------------------------------------------|
A|---------------------------------------------------------------------------------|
E|---------------------------------------------------------------------------------|
   And I'm tired of eating off of other people's plates,



e|--------------6-----------6----------8-------8-----------------------------------|
B|--------------8-----------8----------10------10----------------------------------|
G|--------------8-----------8----------10------10----------------------------------|
D|---------------------------------------------------------------------------------|
A|---------------------------------------------------------------------------------|
E|---------------------------------------------------------------------------------|
   And I don't look important so they're tellin' me to wait,


   Police records said they wouldn't exist,
   I wanna know the meaning of a Christmas list,
   Said all I wanna do is kick the welfare,
   All I wanna do is get my share,(tiki tiki tiki)
   All I wanna do is make somethin' from nothin',

		DISTORTION
e|---------------------------------------------------------------------------|
B|---------------------------------------------------------------------------|
G|------8--------------------------------------------------------------------|
D|------8--------------------------------------------------------------------|
A|------6--------------------------------------------------------------------|
E|---------------------------------------------------------------------------|
   It's GC baby and we're workin' with somethin',


Chorus:	DISTORTION

e|---------------------------------------------------------------------------------|
B|---------------------------------------------------------------------------------|
G|------------10-10-xx--88888--xx--10-10--xx------------10-10-xx--88888--xx--10-10-|
D|--88888-xx--10-10-xx--88888--xx--10-10--xx--88888-xx--10-10-xx--88888--xx--10-10-|
A|--88888-xx--8--8--xx--66666--xx--8--8---xx--88888-xx--8--8--xx--66666--xx--8--8--|
E|--66666-xx----------------------------------66666-xx-----------------------------|
    Everything's gonna be alright now, Everything's gonna be alright,

    Get down stay up all night now,
    Let's do this one more time,
    Everything will be alright
    Everything will be alright, alright

e|---------------------------------------------------------------------------------|
B|---------------------------------------------------------------------------------|
G|----88888888-----10-10-10--------------------------------------------------------|
D|----88888888-----10-10-10--------8-6-5-------------------------------------------|
A|----66666666-----8--8--8---------8-6-5-------------------------------------------|
E|---------------------------------6-4-3-------------------------------------------|
    We'll be self-made million  -  aires,



e|---------------------------------------------------------------------------------|
B|---------------------------------------------------------------------------------|
G|----88888888-----10-10-10--------------------------------------------------------|
D|----88888888-----10-10-10-----------888666-5-------------------------------------|
A|----66666666-----8--8--8------------888666-5-------------------------------------|
E|------------------------------------666666-3-------------------------------------|
    These lives we'll lead without a care, Oh yeah,   



e|---------------------------------------------------------------------------------|
B|---------------------------------------------------------------------------------|
G|----88888888----------------10-10-10---------------------------------------------|
D|----88888888----------------10-10-10---------------------------------------------|
A|----66666666----------------8--8--8----------------------------------------------|
E|---------------------------------------------------------------------------------|
    And we'll see what we'll be,


Chorus

e|---------------------------------------------------------------------------------|
B|---------------------------------------------------------------------------------|
G|------------10-10-xx--88888--xx--10-10--xx------------10-10-xx--88888--xx--10-10-|
D|--88888-xx--10-10-xx--88888--xx--10-10--xx--88888-xx--10-10-xx--88888--xx--10-10-|
A|--88888-xx--8--8--xx--66666--xx--8--8---xx--88888-xx--8--8--xx--66666--xx--8--8--|
E|--66666-xx----------------------------------66666-xx-----------------------------|
    Everything's gonna be alright now, Everybody say oh yeah that's right,



e|---------------------------------------------------------------------------------|
B|---------------------------------------------------------------------------------|
G|------------10-10-xx--88888--xx--10-10--xx------------10-10-xx--88888--xx--10-10-|
D|--88888-xx--10-10-xx--88888--xx--10-10--xx--88888-xx--10-10-xx--88888--xx--10-10-|
A|--88888-xx--8--8--xx--66666--xx--8--8---xx--88888-xx--8--8--xx--66666--xx--8--8--|
E|--66666-xx----------------------------------66666-xx-----------------------------|
    Everything's gonna be alright now, Everybody say it one more time,



e|---------------------------------------------------------------------------------|
B|---------------------------------------------------------------------------------|
G|------------10-10-xx--8----------------------------------------------------------|
D|--88888-xx--10-10-xx--8----------------------------------------------------------|
A|--88888-xx--8--8--xx--6----------------------------------------------------------|
E|--66666-xx-----------------------------------------------------------------------|
    Everything will be alright, 



e|---------------------------------------------------------------------------------|
B|---------------------------------------------------------------------------------|
G|------------10-10-----88888------10-10----------------10-10-----88888------10-10-|
D|--88888-----10-10-----88888------10-10------88888-----10-10-----88888------10-10-|
A|--88888-----8--8------66666------8--8-------88888-----8--8------66666------8--8--|
E|--66666-------------------------------------66666--------------------------------|
    (alright, alright... etc)



e|---------------------------------------------------------------------------------|
B|---------------------------------------------------------------------------------|
G|------------10-10-----88888------10-10----------------10-10-----88888------10----|
D|--88888-----10-10-----88888------10-10------88888-----10-10-----88888------10----|
A|--88888-----8--8------66666------8--8-------88888-----8--8------66666------8-----|
E|--66666-------------------------------------66666--------------------------------|
    We'll see you when we get there, We'll see you when we get there,


e|---------------------------------------------------------------------------------|
B|---------------------------------------------------------------------------------|
G|---------------------------------------------------------------------------------|
D|-----------------8-8888888-------------------------------------------------------|
A|-----------------8-8888888-------------------------------------------------------|
E|-----------------6-6666666-------------------------------------------------------|
     On the video,



e|---------------------------------------------------------------------------------|
B|---------------------------------------------------------------------------------|
G|---------------------------------------------------------------------------------|
D|-----------------8-8888888-------------------------------------------------------|
A|-----------------8-8888888-------------------------------------------------------|
E|-----------------6-6666666-------------------------------------------------------|
     Or the radio,



e|---------------------------------------------------------------------------------|
B|---------------------------------------------------------------------------------|
G|---------------------------------------------------------------------------------|
D|-----------------8-8888888-------------------------------------------------------|
A|-----------------8-8888888-------------------------------------------------------|
E|-----------------6-6666666-------------------------------------------------------|  
    In the magazines,



e|---------------------------------------------------------------------------------|
B|-------------------11------------------------------------------------------------|
G|-----------------10--------------------------------------------------------------|
D|----------------8----------------------------------------------------------------|
A|---------------------------------------------------------------------------------|
E|---------------------------------------------------------------------------------|
    On the movie screens




| /  slide up
| \  slide down
| h  hammer-on
| p  pull-off
| ~  vibrato
| +  harmonic
| x  Mute note
===============================================================================
Comments