Good Charlotte - Waldorf Worldwide Chords & Tabs

 

Waldorf Worldwide Chords & Tabs

Good Charlotte Chords & Tabs

Version: 3 Type: Tab 0 ratings
1 star 2 stars 3 stars 4 stars 5 stars
comments

Waldorf Worldwide Tab

tuned normally
ps - you have to maximize the screen or else it will look funny

intro
------------------------------------------------------
--------11----10---10----------8-----10----10---------
----10-----------10---10-----8----8-----10----10------
--8----------------------------8----8-----------------
------------------------------------------------------
------------------------------------------------------
[ Tab from: http://www.guitartabs.cc/tabs/g/good_charlotte/waldorf_worldwide_tab_ver_3.html ]
heavy part of intro
------------------------------------------------------
------------------------------------------------------
------------------------------------------------------
-3-3---3-3--8-8-8-8-8---10101010--8-8-8-8-8-10101010--
-3-3---3-3--8-8-8-8-8---8-8-8-8---6-6-6-6-6-8-8-8--8--
-1-1---1-1--6-6-6-6-6---------------------------------

the verses dont fit!!! email me if you want them
Orangeusa8787@aol.com
Comments