Good Charlotte - Time After Time Chords & Tabs

 

Time After Time Chords & Tabs

Good Charlotte Chords & Tabs

Version: 1 Type: Tab 0 ratings
1 star 2 stars 3 stars 4 stars 5 stars
comments

Time After Time Tab

   
Good Charlotte
“Time After Time”
By: The Dugester


The beginning starts out with regular fulls chords and then 
it goes to power chords a little later.  Listen to the cd to 
get the rhythm.  Sorry if some of it is wrong I did this the 
best I could in like 10 minutes.


C-0-1-0-2-3-0
B-1-1-2-3-3-0

You just play those two chords alternating through the verses. Then…….

“With the things she says I…”  then you go to….

E|---------------------------------------|
A|---------------------------------------|
D|---------------------------------------|             This is your bridge chord.
G|-------5-------------------------------|
B|-------5-------------------------------|
E|-------3-------------------------------|
  
“All the things we talk about….”
[ Tab from: http://www.guitartabs.cc/tabs/g/good_charlotte/time_after_time_tab.html ]
Pre-Chorus:
E| -------------------------------------------|                         
A|-------------------------------------------|                     
D|-------------------------------------------|
G|--7--------5-----------3-------------|
B|--7--------5-----------3--------------|
E|--5--------3-----------1-----------------|      

“Cause your ooooon and oooon into……..”

Chorus:
E|--------------------------------------------------------------------|
A|--------------------------------------------------------------------|
D|--------5-----------------------------------------------------------|
G|--------5------------5----------3------------7---------5--------3---|
B|--------3------------5----------3------------7---------5--------3----|
E|xxxxxx---------------3----------1------------5---------3--------1----|

“I’m fallin, I’m fallin, I’m fallin down”

Bridge:
E|--------------------------------------------------|
A|--------------------------------------------------|
D|--------------------------------------------------|
G|-----7-------5--------3----------------------|
B|-----7-------5--------3-----------------------|
E|-----5-------3--------1--------------------------|

Then back to the chorus.

--that’s about it, if there are any mistakes, my bad.
Comments