Good Charlotte - The Young And The Hopeless Chords & Tabs

 

The Young And The Hopeless Chords & Tabs

Good Charlotte Chords & Tabs

Version: 2 Type: Tab 0 ratings
1 star 2 stars 3 stars 4 stars 5 stars
comments

The Young And The Hopeless Tab

this is an easy song to play. I think this is 100% correct if not please tell me.

tune down 1/2 step
.=palm mute

verse gtr 1
eb-------------------------------------------
Bb-------------------------------------------on the 2nd time let off of the 
Gb--------6--------------------6-------------palm mute gradually
Db-2------6-x16--7------2------6-x16--7------
Ab-2-x48--4------7-x32--2-x16--4------7-x32--
Eb-0-------------5------0-------------5------
   .      .      .      .      .      .

gtr 2
eb-4-5-4-5-7-5-4-5-4------
Bb------------------------
Gb------------------------x6
Db------------------------
Ab-------------------------
Eb------------------------

pre-chorus
eb--------------------------------------------
Bb--------------------------------------------
Gb-66666666------------99999999---------------
Db-66666666--77777777--99999999--99999999-----x2
Ab-44444444--77777777--77777777--99999999-----
Eb-----------55555555------------77777777-----

chorus
eb------------------------------------------------------
Bb------------------------------------------------------
Gb----------66666666-----------------------99999999-----
Db-22222222-66666666-77777777-99999999-----99999999-----
Ab-22222222-44444444-77777777-99999999-x2--77777777-----
Eb-00000000----------55555555-77777777------------------

verse gtr 1
eb-------------------------
Bb-------------------------
Gb--------6----------------
Db-2------6-x16--7---------x2
Ab-2-x16--4------7-x32-----
Eb-0-------------5---------
   .      .      .

gtr 2
eb-4-5-4-5-7-5-4-5-4----
Bb----------------------
Gb----------------------
Db----------------------x6
Ab----------------------
Eb----------------------

pre-chorus

chorus
[ Tab from: http://www.guitartabs.cc/tabs/g/good_charlotte/the_young_and_the_hopeless_tab_ver_2.html ]
bridge
eb-----------------------------------------------------------------------------
Bb-----------------------------------------------------------------------------
Bb-99999999--66666666------------99999999--66666666----------------------------
Db-99999999--66666666--22222222--99999999--66666666--22222222------------------
Ab-77777777--44444444--22222222--77777777--44444444--22222222------------------
Eb---------------------00000000----------------------00000000------------------
   ........  ........  ........  ........  ........  ........

eb-----------------------------------
Bb-----------------------------------
Gb-99999999--66666666----------------
Db-99999999--66666666--22222222------
Ab-77777777--44444444--22222222------
Eb---------------------00000000------
   ........  ........
-
eb-------------------------------------------------------------
Bb-------------------------------------------------------------
Gb-99999999--66666666--44444444--99999999--66666666--44444444--
Db-99999999--66666666--44444444--99999999--66666666--44444444--
Ab-77777777--44444444--22222222--77777777--44444444--22222222--
Eb-------------------------------------------------------------

gtr 2
eb-9--8--7-------------
Bb---------------------
Gb---------------------x2
Db---------------------
Ab---------------------
Eb---------------------

chorus

outro
eb-------------------------------------------------------------------
Bb-------------------------------------------------------------------
Gb-99999999--66666666------------99999999--66666666--9--6------------
Db-99999999--66666666--22222222--99999999--66666666--9--6--2---------
Ab-77777777--44444444--22222222--77777777--44444444--7--4--2---------
Eb---------------------00000000----------------------------0---------

thats it have fun and please tell me if i messed up anywhere
Comments