Good Charlotte - The Young And The Hopeless Chords & Tabs

 

The Young And The Hopeless Chords & Tabs

Good Charlotte Chords & Tabs

Version: 2 Type: Bass Tab 0 ratings
1 star 2 stars 3 stars 4 stars 5 stars
comments

The Young And The Hopeless Bass Tab

Song: Young & Hopeless
Artist: Good Charlotte
Album: the young and the hopeless

tabbed by : kian
e-mail: anarcic@hotmail.com

Standard tuning

Intro - guitar only

Verse 1 - part 1 guitar only 
        - part 2 Bass and drums comes in  
G|--------------------------------------|
D|--------------------------------------|
A|-66666666-33333333--------------------|
E|-------------------44444444-44444444--|
   Take...    say...     won't...   know...

Pre-chorus
G|-----------------------------------------------3333-1111-0000----------|
D|-------------5-3-1-0----------------3333--1111-------------------------|
A|333333333333--------------1111-3333---------------------------11111111-|
E|---------------------4444----------------------------------------------|x2
[ Tab from: http://www.guitartabs.cc/tabs/g/good_charlotte/the_young_and_the_hopeless_btab_ver_2.html ]
Chorus
G|----------------------------------------------------| end on|----------|
D|----------------------------------------------------|       |----------|
A|-6--6-666-6---3--3--333-3--------------------------|       |-66666666-|
E|-----------------------------4--4--444-4---66666666-|x2     |----------|

Verse 2                                      
G|--------------------------------------|
D|--------------------------------------|
A|-66666666-33333333--------------------|
E|-------------------44444444-44444444--|x2

Repeat pre-chorus & chorus

Bridge 
part 1 - rythm guitar only 
part 2 - lead guitar and bass enters
G|----------------------------------------------|
D|----------------------------------------------|
A|--3~---2~---6~---3~---2~---66666666-66666666--|
E|----------------------------------------------|

G|--------------------------------------|
D|--------------------------------------|
A|--33333333-22222222-66666666-66666666-|
E|--------------------------------------|X2

Then repeat chorus

After the last chorus
G|--------------------------------------|
D|--------------------------------------|
A|--33333333-22222222-66666666-66666666-|
E|--------------------------------------|x2

G|-------------------|
D|-------------------|
A|--3~---2~---6~-----|
E|-------------------|
Comments