Good Charlotte - The Story Of My Old Man Chords & Tabs

 

The Story Of My Old Man Chords & Tabs

Good Charlotte Chords & Tabs

Version: 4 Type: Tab 0 ratings
1 star 2 stars 3 stars 4 stars 5 stars
comments

The Story Of My Old Man Tab

   
Good charlotte
The story of my old man
Tabbed by: Headless_duck77
Standard tuning

1st part of intro:
e:------------------------
B:------------------------
G:-4-4-4-4-4-4-4-4-4-4----
D:-x-x-x-x-x-x-x-x-x-x----
A:-2-2-2-2-2-2-2-2-2-2----
E:------------------------

2nd half of intro:
e:---------------------------
B:---------------------------
G:---------------------------
D:-2-2-2-2-2-2-4-4-4-4-4-4-4-
A:-2-2-2-2-2-2-4-4-4-4-4-4-4-
E:-0-0-0-0-0-0-2-2-2-2-2-2-2-

Verse:
e:---------------------------------------
B:---------------------------------------
G:-4-4-4-4-4-4---------------------------
D:-4-4-4-4-4-4-2-2-2-2-2-2-4-4-4-4-4-4-4-
A:-2-2-2-2-2-2-2-2-2-2-2-2-4-4-4-4-4-4-4-
E:-------------0-0-0-0-0-0-2-2-2-2-2-2-2-

Chorus:
Guitar 1:
e:---------------------------------------
B:---------------------------------------
G:-8-8-8-8-8-8-6-6-6-6-6-6-4-4-4-4-4-4-4-
D:-x-x-x-x-x-x-x-x-x-x-x-x-x-x-x-x-x-x-x-
A:-6-6-6-6-6-6-4-4-4-4-4-4-2-2-2-2-2-2-2-
E:---------------------------------------

Guitar 2:
e:---------------------------------------
B:---------------------------------------
G:---------------------------------------
D:-6-6-6-6-6-6-4-4-4-4-4-4-4-2-2-2-2-2-2-
A:-6-6-6-6-6-6-4-4-4-4-4-4-4-2-2-2-2-2-2-
E:-4-4-4-4-4-4-2-2-2-2-2-2-2-0-0-0-0-0-0-

Post chorus thing:
e:------------
B:-------4----
G:-----4---4--
D:------------ repeat that over and over again till it switches
A:-2----------
E:------------

Little pre-verse:
e:------------------------
B:------------------------
G:-4-4-4-4-4-4-4-4-4-4----
D:-x-x-x-x-x-x-x-x-x-x----
A:-2-2-2-2-2-2-2-2-2-2----
E:------------------------

e:---------------------------
B:---------------------------
G:---------------------------
D:-2-2-2-2-2-2-4-4-4-4-4-4-4-
A:-2-2-2-2-2-2-4-4-4-4-4-4-4-
E:-0-0-0-0-0-0-2-2-2-2-2-2-2-
[ Tab from: http://www.guitartabs.cc/tabs/g/good_charlotte/the_story_of_my_old_man_tab_ver_4.html ]
Verse:
e:---------------------------------------
B:---------------------------------------
G:-4-4-4-4-4-4---------------------------
D:-4-4-4-4-4-4-2-2-2-2-2-2-4-4-4-4-4-4-4- on the time before the chorus do a quick
A:-2-2-2-2-2-2-2-2-2-2-2-2-4-4-4-4-4-4-4- chika-chika mute when u get to the F# power chord
E:-------------0-0-0-0-0-0-2-2-2-2-2-2-2-

Chorus:
Guitar 1:
e:---------------------------------------
B:---------------------------------------
G:-8-8-8-8-8-8-6-6-6-6-6-6-4-4-4-4-4-4-4-
D:-x-x-x-x-x-x-x-x-x-x-x-x-x-x-x-x-x-x-x-
A:-6-6-6-6-6-6-4-4-4-4-4-4-2-2-2-2-2-2-2-
E:---------------------------------------

Guitar 2:
e:---------------------------------------
B:---------------------------------------
G:---------------------------------------
D:-6-6-6-6-6-6-4-4-4-4-4-4-4-2-2-2-2-2-2-
A:-6-6-6-6-6-6-4-4-4-4-4-4-4-2-2-2-2-2-2-
E:-4-4-4-4-4-4-2-2-2-2-2-2-2-0-0-0-0-0-0-

Post chorus thing:
e:------------
B:-------4----
G:-----4---4--
D:------------ repeat that over and over again till it switches
A:-2----------
E:------------

Little interlude:
Guitar 1:
e:---------------------------------------
B:---------------------------------------
G:-8-8-8-8-8-8-6-6-6-6-6-6-4-4-4-4-4-4-4-
D:-x-x-x-x-x-x-x-x-x-x-x-x-x-x-x-x-x-x-x-
A:-6-6-6-6-6-6-4-4-4-4-4-4-2-2-2-2-2-2-2-
E:---------------------------------------

Guitar 2:
e:---------------------------------------
B:---------------------------------------
G:---------------------------------------
D:-6-6-6-6-6-6-4-4-4-4-4-4-4-2-2-2-2-2-2-
A:-6-6-6-6-6-6-4-4-4-4-4-4-4-2-2-2-2-2-2-
E:-4-4-4-4-4-4-2-2-2-2-2-2-2-0-0-0-0-0-0-

Chorus: (altered)
Both guitars:
e:---------------------------------------
B:---------------------------------------
G:---------------------------------------
D:-6-6-6-6-6-6-4-4-4-4-4-4-4-2-2-2-2-2-2-
A:-6-6-6-6-6-6-4-4-4-4-4-4-4-2-2-2-2-2-2-
E:-4-4-4-4-4-4-2-2-2-2-2-2-2-0-0-0-0-0-0-
Comments