Good Charlotte - The Story Of My Old Man Chords & Tabs

 

The Story Of My Old Man Chords & Tabs

Good Charlotte Chords & Tabs

Version: 2 Type: Tab 0 ratings
1 star 2 stars 3 stars 4 stars 5 stars
comments

The Story Of My Old Man Tab

   
-------------------------------------------------------------------------------
			     The Story of My Old Man
-------------------------------------------------------------------------------

Tabbed by:zerolocut89
Email:
Im pretty sure this is right except the ending. I might be off there.
Let me know of any errors at garyl2@peoplepc.com
[ Tab from: http://www.guitartabs.cc/tabs/g/good_charlotte/the_story_of_my_old_man_tab_ver_2.html ]
Tuning:standard
Play this over and over
e|---------------------------------------------------------------------------|
B|---------------------------------------------------------------------------|
G|--4------------------------------------------------------------------------|
D|--x------------------------------------------------------------------------|
A|--2------------------------------------------------------------------------|
E|---------------------------------------------------------------------------|
verse riff
e|---------------------------------------------------------------------------|
B|---------------------------------------------------------------------------|
G|---------------------------------------------------------------------------|
D|-2-2-2--------------2-2-2--------------2-2-2--------------------2-2-2------|
A|-2-2-2--4-4--6-6-6--2-2-2--4-4--6-6-6--2-2-2--4-4--6-6-6--x--6--2-2-2--4-4-|
E|-0-0-0--2-2--4-4-4--0-0-0--2-2--4-4-4--0-0-0--2-2--4-4-4--x--4--0-0-0--2-2-|
chorus
e|---------------------------------------------------------------------------|x4
B|---------------------------------------------------------------------------|
G|-8--8-8-8--6-6-6-6---4-4-4-4-----------------------------------------------|
D|-x--x-x-x--x-x-x-x---x-x-x-x-----------------------------------------------|
A|-6--6-6-6--4-4-4-4---2-2-2-2-----------------------------------------------|
E|---------------------------------------------------------------------------|
on the fourth time keep playing this
e|---------------------------------------------------------------------------|
B|---------------------------------------------------------------------------|
G|--4------------------------------------------------------------------------|
D|--x------------------------------------------------------------------------|
A|--2------------------------------------------------------------------------|
E|---------------------------------------------------------------------------|
part after chorus/interlude
e|---------------------------------------------------------------------------|
B|---4--------4--------4--------4--------------------------------------------|
G|------4--------4--------4--------4-----------------------------------------|
D|-2-------2--------2--------2--------2 stop---------------------------------|
A|---------------------------------------------------------------------------|
E|---------------------------------------------------------------------------|
play the chorus without the lyrics
then play
e|---------------------------------------------------------------------------|
B|---------------------------------------------------------------------------|
G|---------------------------------------------------------------------------|
D|-8-8-8-8--6-6-6-6-4-4-4-4--------------------------------------------------|
A|-8-8-8-8--6-6-6-6-4-4-4-4--------------------------------------------------|
E|-6-6-6-6--4-4-4-4-2-2-2-2--------------------------------------------------|

order
intro
verse 
chorus
part after chorus
verse
chorus
interlude
chorus(without lyrics)
ending

| /  slide up
| \  slide down
| h  hammer-on
| p  pull-off
| ~  vibrato
| +  harmonic
| x  Mute note
Comments