Good Charlotte - The Story Of My Old Man Chords & Tabs

 

The Story Of My Old Man Chords & Tabs

Good Charlotte Chords & Tabs

Version: 1 Type: Bass Tab 0 ratings
1 star 2 stars 3 stars 4 stars 5 stars
comments

The Story Of My Old Man Bass Tab

   
-------------------------------------------------------------------------------
   	      Story Of My Old Man - Good Charlotte
-------------------------------------------------------------------------------

Tabbed By : gcjunkie	
e-mail: purple_piggy_26@yahoo.com
Tabbed On: May 13/03
Album: The Young And The Hopeless
Tuning: Standard (EADG)

This is my first tab, so be nice. I'm pretty sure it's right. Any questions, email me. 
It's written out in the order you play it. Have fun!

guitar/drum intro, bass comes in on "too much of my old man"
G|---------------------------------------------------------------------------| x3
D|---------------------------------------------------------------------------|
A|-- ----------22222222------------------------------------------------------|
E|- 00002222-----------------------------------------------------------------|

G|---------------------------------------------------------------------------|x1
D|---------------------------------------------------------------------------|
A|---------------------------------------------------------------------------|
E|-000022224444--------------------------------------------------------------|

"this is the story of my old man"
G|---------------------------------------------------------------------------|x3
D|---------------------------------------------------------------------------|
A|---------------------------------------------------------------------------|
E|-4444222200000000----------------------------------------------------------|

G|---------------------------------------------------------------------------|
D|---------------------------------------------------------------------------|
A|------6666-----------------------------------------------------------------|
E|-4444-----00000000---------------------------------------------------------|

"monday he woke up"
G|---------------------------------------------------------------------------|x4
D|--------4-----2------------------------------------------------------------|
A|--2------------------------------------------------------------ -----------|
E|---------------------------------------------------------------------------|

"i remember baseball games"
G|---------------------------------------------------------------------------|x3
D|---------------------------------------------------------------------------|
A|------------22222222 ------------------------------------------------------|
E|-00002222------------------------------------------------------------------|

G|---------------------------------------------------------------------------|
D|---------------------------------------------------------------------------|
A|---------------------------------------------------------------------------|
E|-000022224444--------------------------------------------------------------|
[ Tab from: http://www.guitartabs.cc/tabs/g/good_charlotte/the_story_of_my_old_man_btab.html ]
"this is the story of my old man"
G|---------------------------------------------------------------------------|x3
D|---------------------------------------------------------------------------|
A|---------------------------------------------------------------------------|
E|-4444222200000000----------------------------------------------------------|

G|---------------------------------------------------------------------------|x1
D|---------------------------------------------------------------------------|
A|------6666-----------------------------------------------------------------|
E|-4444-----00000000---------------------------------------------------------|

(Fill after chorus)
G|---------------------------------------------------------------------------|
D|---------------------------------------------------------------------------|
A|---------------------------------------------------------------------------|
E|-4-\2-\1-------------------------------------------------------------------|

"monday he woke up"
G|---------------------------------------------------------------------------|x7
D|-----4---2-----------------------------------------------------------------|
A|-2-------------------------------------------------------------------------|
E|---------------------------------------------------------------------------|

Instrumental Solo:
G|---------------------------------------------------------------------------|x3
D|---------------------------------------------------------------------------|
A|---------------------------------------------------------------------------|
E|-4444222200000000----------------------------------------------------------|

G|---------------------------------------------------------------------------|x1
D|---------------------------------------------------------------------------|
A|------6666-----------------------------------------------------------------|
E|-4444-----0000000000000000-------------------------------------------------|

"someday he'll wish that he made things right"
G|---------------------------------------------------------------------------|x4
D|---------------------------------------------------------------------------|
A|-2222----------------------------------------------------------------------|
E|-------444400000000--------------------------------------------------------|

Last Note:
G|---------------------------------------------------------------------------|
D|---------------------------------------------------------------------------|
A|---------------------------------------------------------------------------|
E|-0-------------------------------------------------------------------------|


| /  slide up
| \  slide down
| h  hammer-on
| p  pull-off
| ~  vibrato
| +  harmonic
| x  Mute note
===============================================================================
Comments