Good Charlotte - The Day That I Die Chords & Tabs

 

The Day That I Die Chords & Tabs

Good Charlotte Chords & Tabs

Version: 3 Type: Tab 0 ratings
1 star 2 stars 3 stars 4 stars 5 stars
comments

The Day That I Die Tab

good charlotte
day that i die

intro:

E|---------------------------------------------------------------
B|---------------------------------------------------------------
G|---------------------------------------------------------------
D|---6-6-6-6-6-6-----8-8-8-8-8-8----6-6-6-6-6-6---6-6-6-6-6-6----
A|---6-6-6-6-6-6-----8-8-8-8-8-8----6-6-6-6-6-6---6-6-6-6-6-6----
E|---4-4-4-4-4-4-----6-6-6-6-6-6----4-4-4-4-4-4---4-4-4-4-4-4----


verse: (strum these chords)

E|-----------------------0-0-0-0---------------
B|-----------------------2-2-2-2---------------
G|--2-2-2-2--------------3-3-3-3--2-2-2-2------
D|--2-2-2-2--2-2-2-2-2---0-0-0-0--2-2-2-2------
A|--0-0-0-0--2-2-2-2-2---0-0-0-0--0-0-0-0------
E|-----------0-0-0-0-0-------------------------

mid verse:

E|--0-0-0-0-0--0-0-0-0----
B|--1-1-1-1-1--2-2-2-2----
G|--2-2-2-2-2--3-3-3-3----
D|--2-2-2-2-2--0-0-0-0----
A|--0-0-0-0-0-------------
E|--0-0-0-0-0-------------


pre-chorus:

E|-----------0-0-0-0---
B|-----------2-2-2-2---
G|-----------2-2-2-2---
D|--2-2-2-2--2-2-2-2---
A|--2-2-2-2--0-0-0-0---
E|--0-0-0-0------------


chorus:
[ Tab from: http://www.guitartabs.cc/tabs/g/good_charlotte/the_day_that_i_die_tab_ver_3.html ]
E|--0-0-0-0--------------0-0-0-0-0--------------
B|--2-2-2-2--------------2-2-2-2-2--------------
G|--2-2-2-2--------------3-3-3-3-3--------------
D|--2-2-2-2---2-2-2-2-2--0-0-0-0-0---2-2-2-2-2--
A|--0-0-0-0---2-2-2-2-2--0-0-0-0-0---2-2-2-2-2--
E|------------0-0-0-0-0--------------0-0-0-0-0--

solo:

E|--------------------------------------------------------------------
B|--------------------------------------------------------------------
G|--------------------------------------------------------------------
D|--------------------------------------------------------------------
A|--2--4-4-4--2--4--2-2-2--4-5-4--2-0--4--2-0--4-4-4--2--4-5-4--2-0---
E|--------------------------------------------------------------------

E|----------------------------
B|----------------------------
G|---------2----2-----2-------    (h= hammer on)
D|--2--2h4---2h---2h4---2h4---
A|----------------------------
E|----------------------------

ending:

E|--0-0-0-0------------0-0-0-0----
B|--2-2-2-2------------2-2-2-2----
G|--2-2-2-2------------3-3-3-3----
D|--2-2-2-2---2-2-2-2--0-0-0-0----
A|--0-0-0-0---2-2-2-2-------------
E|------------0-0-0-0-------------

i think the song order goes like:

intro       verse    ending
verse       chorus
mid verse   solo
chorus      verse

probably the wrong song order. i figuared the intro out. i got the rest from
guitar magazine or whatver. sounds close though. have fun with this song.
Comments