Good Charlotte - The Click Chords & Tabs

 

The Click Chords & Tabs

Good Charlotte Chords & Tabs

Version: 5 Type: Tab 0 ratings
1 star 2 stars 3 stars 4 stars 5 stars
comments

The Click Tab

   
SONG : THE CLICK 
BAND : GOOD CHARLOTTE
ALBUM : LIFESTYLES OF THE RICH AND FAMOUS (SINGLE)
TABBED BY : CLIVE COATS ccoats_88@hotmail.com
TUNING : STANDARD

 THIS SONG IS VERY EASY TO PLAY AND QUITE FUN. PALM MUTING IS THE ONLY DIFFICULTY WITH THIS
SONG, BUT ONCE YOU GET THE HANG OF IT IS VERY EASY.
.=PALM MUTE

INTRO (GUITAR 1)

D-0-2-4--2-0-2-4--2-0-2-4--2-4-5-4-2--0-2-4--2-0-2-4--2-0-2-4--2-0-- X2 

INTRO (GUITAR 2)

E-------------------------
B-------------------------
G-7-7-7-7-----------------
D-7-7-7-7-7-7-7-7-5-5-5-5- X4
A-5-5-5-5-7-7-7-7-5-5-5-5-
E---------5-5-5-5-3-3-3-3-

VERSE 1 ( GUITAR 1)

E-----------------------------------------------------------------
B-----------------------------------------------------------------
G-7-7-7-7-7-7-7-7-------------------------------------------------
D-7-7-7-7-7-7-7-7-7-7-7-7-7-7-7-7-5-5-5-5-5-5-5-5=5-5-5-5-5-5-5-5- X4
A-5-5-5-5-5-5-5-5-7-7-7-7-7-7-7-7-5-5-5-5-5-5-5-5-5-5-5-5-5-5-5-5-
E-----------------5-5-5-5-5-5-5-5-3-3-3-3-3-3-3-3-3-3-3-3-3-3-3-3-
  . . . . . . . . . . . . . . . . . . . . . . . . . . . . . . . . 

AFTER THIS HAS BEEN PLAYED TWICE, GUITAR 2 COMES IN WITH THIS.

E-----------------------------------------------------------------
B-----------------------------------------------------------------
G-7-------------7-------------------------------------------------
D-7-------------7-7-------------7-5-------------5-5-------------5- X2
A-5-------------5-7-------------7-5-------------5-5-------------5-
E-----------------5-------------5-3-------------3-3-------------3-

THIS WILL BE IN TIME WITH THE PALM MUTED CHORDS.

ON THE LAST TIME STOP PALM MUTING SO AS TO LEAD INTO THE CHORUS, GUITAR 2 WILL DO THIS AS WELL.

CHORUS (BOTH GUITARS)

E---------------------------------------------------------------------
B---------------------------------------------------------------------
G-7-7-7-7-------------------------7-7-7-7-----------------------------
D-7-7-7-7-7-7-7-7-9-9-9-9-5-5-5-5-7-7-7-7-7-7-7-7-55-5-55-5-55-5-55-5- X2
A-5-5-5-5-7-7-7-7-9-9-9-9-5-5-5-5-5-5-5-5-7-7-7-7-55-5-55-5-55-5-55-5-
E---------5-5-5-5-7-7-7-7-3-3-3-3---------5-5-5-5-33-3-33-3-33-3-33-3-
                                                  ..   ..   ..   ..   
SECOND VERSE 

GUITAR 1

E-----------------------------------------------------------------
B-----------------------------------------------------------------
G-7-7-7-7-7-7-7-7-------------------------------------------------
D-7-7-7-7-7-7-7-7-7-7-7-7-7-7-7-7-9-9-9-9-9-9-9-9-5-5-5-5-5-5-5-5- X2
A-5-5-5-5-5-5-5-5-7-7-7-7-7-7-7-7-9-9-9-9-9-9-9-9-5-5-5-5-5-5-5-5-
E-----------------5-5-5-5-5-5-5-5-7-7-7-7-7-7-7-7-3-3-3-3-3-3-3-3-
  . . . . . . . . . . . . . . . . . . . . . . . . . . . . . . . .

FOR THE NEXT TWO TIMES PLAY THIS IN TIME WITH THE NORMAL CHORDS, (WHICH THE BASS WILL CARRY
ON PLAYING), UNTIL THE END OF THE VERSE.

D-0-2-4--2-4-5-4-2 


GUITAR 2

E-----------------------------------------------------------------
B-----------------------------------------------------------------
G-7-------------7-------------------------------------------------
D-7-------------7-7-------------7-9-------------9-5---------------
A-5-------------5-7-------------7-9-------------9-5---------------
E-----------------5-------------5-7-------------7-3---------------

PLAY CHORUS, THEN PLAY THIS INTERLUDE

BOTH GUITARS

E------------------------------------------------------------------
B------------------------------------------------------------------
G-7--------------------------7-------------------------------------
D-7--------7--------5--------5--------7--------55-5-55-5-55-5-55-5-
A-5--------5--------5--------5--------7--------55-5-55-5-55-5-55-5-
E----------5--------3-----------------5--------33-3-33-3-33-3-33-3-
(SHE SAID SHE'D.....)                          ..   ..   ..   ..



(GUITAR 1)

B-8--7-5--3=----------------------------------
G----------=----------------------------------  REPEAT FROM = 2 TIMES
D----------=0-2-4--2-0-2-4--2-0-2-4--2-4-5-4-2

(GUITAR 2) 

E-------------------------------------------------
B-------------------------------------------------
G-7-7-7-7-7-7-7-7--------------------------------- PLAY 2 TIMES FROM AFTER 8--7-5--3
D-7-7-7-7-7-7-7-7-7-7-7-7-7-7-7-7-5-5-5-5-5-5-5-5-
A-5-5-5-5-5-5-5-5-7-7-7-7-7-7-7-7-5-5-5-5-5-5-5-5-
E-----------------5-5-5-5-5-5-5-5-3-3-3-3-3-3-3-3-

LAST CHORUS (BOTH GUITARS)

E---------------------------------------------------------------
B---------------------------------------------------------------
G-7-7-77-7----------------------------7-7-77-7------------------
D-7-7-77-7-7-7-77-7-9-9-99-9-5-5-55-5-7-7-77-7-7-7-77-7-9-9-99-9 PLAY TWICE
A-5-5-55-5-7-7-77-7-9-9-99-9-5-5-55-5-5-5-55-5-7-7-77-7-9-9-99-9
E----------5-5-55-5-7-7-77-7-3-3-33-3----------5-5-55-5-7-7-77-7
      ..       ..       ..       ..       ..       ..       ..  

E--------------------
B--------------------
G--------------------
D-55-5-55-5-55-5-55-5
A-55-5-55-5-55-5-55-5
E-33-3-33-3-33-3-33-3

PLAY INTRO 4 MORE TIMES THEN END WITH THE D POWER CHORD.

THAT IS IT. PRETTY SIMPLE. IF YOU THINK THERE ARE ANY MISTAKES PLEASE SEND THEM TO ME.

SONG : THE CLICK 
BAND : GOOD CHARLOTTE
ALBUM : LIFESTYLES OF THE RICH AND FAMOUS (SINGLE)
TABBED BY : CLIVE COATS ccoats_88@hotmail.com
TUNING : STANDARD

 THIS SONG IS VERY EASY TO PLAY AND QUITE FUN. PALM MUTING IS THE ONLY DIFFICULTY WITH THIS
SONG, BUT ONCE YOU GET THE HANG OF IT IS VERY EASY.
.=PALM MUTE

INTRO (GUITAR 1)

D-0-2-4--2-0-2-4--2-0-2-4--2-4-5-4-2--0-2-4--2-0-2-4--2-0-2-4--2-0-- X2 

INTRO (GUITAR 2)

E-------------------------
B-------------------------
G-7-7-7-7-----------------
D-7-7-7-7-7-7-7-7-5-5-5-5- X4
A-5-5-5-5-7-7-7-7-5-5-5-5-
E---------5-5-5-5-3-3-3-3-

VERSE 1 ( GUITAR 1)

E-----------------------------------------------------------------
B-----------------------------------------------------------------
G-7-7-7-7-7-7-7-7-------------------------------------------------
D-7-7-7-7-7-7-7-7-7-7-7-7-7-7-7-7-5-5-5-5-5-5-5-5=5-5-5-5-5-5-5-5- X4
A-5-5-5-5-5-5-5-5-7-7-7-7-7-7-7-7-5-5-5-5-5-5-5-5-5-5-5-5-5-5-5-5-
E-----------------5-5-5-5-5-5-5-5-3-3-3-3-3-3-3-3-3-3-3-3-3-3-3-3-
  . . . . . . . . . . . . . . . . . . . . . . . . . . . . . . . . 

AFTER THIS HAS BEEN PLAYED TWICE, GUITAR 2 COMES IN WITH THIS.

E-----------------------------------------------------------------
B-----------------------------------------------------------------
G-7-------------7-------------------------------------------------
D-7-------------7-7-------------7-5-------------5-5-------------5- X2
A-5-------------5-7-------------7-5-------------5-5-------------5-
E-----------------5-------------5-3-------------3-3-------------3-

THIS WILL BE IN TIME WITH THE PALM MUTED CHORDS.

ON THE LAST TIME STOP PALM MUTING SO AS TO LEAD INTO THE CHORUS, GUITAR 2 WILL DO THIS AS WELL.

CHORUS (BOTH GUITARS)

E---------------------------------------------------------------------
B---------------------------------------------------------------------
G-7-7-7-7-------------------------7-7-7-7-----------------------------
D-7-7-7-7-7-7-7-7-9-9-9-9-5-5-5-5-7-7-7-7-7-7-7-7-55-5-55-5-55-5-55-5- X2
A-5-5-5-5-7-7-7-7-9-9-9-9-5-5-5-5-5-5-5-5-7-7-7-7-55-5-55-5-55-5-55-5-
E---------5-5-5-5-7-7-7-7-3-3-3-3---------5-5-5-5-33-3-33-3-33-3-33-3-
                                                  ..   ..   ..   ..   
SECOND VERSE 

GUITAR 1

E-----------------------------------------------------------------
B-----------------------------------------------------------------
G-7-7-7-7-7-7-7-7-------------------------------------------------
D-7-7-7-7-7-7-7-7-7-7-7-7-7-7-7-7-9-9-9-9-9-9-9-9-5-5-5-5-5-5-5-5- X2
A-5-5-5-5-5-5-5-5-7-7-7-7-7-7-7-7-9-9-9-9-9-9-9-9-5-5-5-5-5-5-5-5-
E-----------------5-5-5-5-5-5-5-5-7-7-7-7-7-7-7-7-3-3-3-3-3-3-3-3-
  . . . . . . . . . . . . . . . . . . . . . . . . . . . . . . . .

FOR THE NEXT TWO TIMES PLAY THIS IN TIME WITH THE NORMAL CHORDS, (WHICH THE BASS WILL CARRY
ON PLAYING), UNTIL THE END OF THE VERSE.

D-0-2-4--2-4-5-4-2 


GUITAR 2

E-----------------------------------------------------------------
B-----------------------------------------------------------------
G-7-------------7-------------------------------------------------
D-7-------------7-7-------------7-9-------------9-5---------------
A-5-------------5-7-------------7-9-------------9-5---------------
E-----------------5-------------5-7-------------7-3---------------

PLAY CHORUS, THEN PLAY THIS INTERLUDE

BOTH GUITARS

E------------------------------------------------------------------
B------------------------------------------------------------------
G-7--------------------------7-------------------------------------
D-7--------7--------5--------5--------7--------55-5-55-5-55-5-55-5-
A-5--------5--------5--------5--------7--------55-5-55-5-55-5-55-5-
E----------5--------3-----------------5--------33-3-33-3-33-3-33-3-
(SHE SAID SHE'D.....)                          ..   ..   ..   ..



(GUITAR 1)

B-8--7-5--3=----------------------------------
G----------=----------------------------------  REPEAT FROM = 2 TIMES
D----------=0-2-4--2-0-2-4--2-0-2-4--2-4-5-4-2

(GUITAR 2) 

E-------------------------------------------------
B-------------------------------------------------
G-7-7-7-7-7-7-7-7--------------------------------- PLAY 2 TIMES FROM AFTER 8--7-5--3
D-7-7-7-7-7-7-7-7-7-7-7-7-7-7-7-7-5-5-5-5-5-5-5-5-
A-5-5-5-5-5-5-5-5-7-7-7-7-7-7-7-7-5-5-5-5-5-5-5-5-
E-----------------5-5-5-5-5-5-5-5-3-3-3-3-3-3-3-3-

LAST CHORUS (BOTH GUITARS)

E---------------------------------------------------------------
B---------------------------------------------------------------
G-7-7-77-7----------------------------7-7-77-7------------------
D-7-7-77-7-7-7-77-7-9-9-99-9-5-5-55-5-7-7-77-7-7-7-77-7-9-9-99-9 PLAY TWICE
A-5-5-55-5-7-7-77-7-9-9-99-9-5-5-55-5-5-5-55-5-7-7-77-7-9-9-99-9
E----------5-5-55-5-7-7-77-7-3-3-33-3----------5-5-55-5-7-7-77-7
      ..       ..       ..       ..       ..       ..       ..  

E--------------------
B--------------------
G--------------------
D-55-5-55-5-55-5-55-5
A-55-5-55-5-55-5-55-5
E-33-3-33-3-33-3-33-3

PLAY INTRO 4 MORE TIMES THEN END WITH THE D POWER CHORD.

THAT IS IT. PRETTY SIMPLE. IF YOU THINK THERE ARE ANY MISTAKES PLEASE SEND THEM TO ME.
[ Tab from: http://www.guitartabs.cc/tabs/g/good_charlotte/the_click_tab_ver_5.html ]
SONG : THE CLICK 
BAND : GOOD CHARLOTTE
ALBUM : LIFESTYLES OF THE RICH AND FAMOUS (SINGLE)
TABBED BY : CLIVE COATS ccoats_88@hotmail.com
TUNING : STANDARD

 THIS SONG IS VERY EASY TO PLAY AND QUITE FUN. PALM MUTING IS THE ONLY DIFFICULTY WITH THIS
SONG, BUT ONCE YOU GET THE HANG OF IT IS VERY EASY.
.=PALM MUTE

INTRO (GUITAR 1)

D-0-2-4--2-0-2-4--2-0-2-4--2-4-5-4-2--0-2-4--2-0-2-4--2-0-2-4--2-0-- X2 

INTRO (GUITAR 2)

E-------------------------
B-------------------------
G-7-7-7-7-----------------
D-7-7-7-7-7-7-7-7-5-5-5-5- X4
A-5-5-5-5-7-7-7-7-5-5-5-5-
E---------5-5-5-5-3-3-3-3-

VERSE 1 ( GUITAR 1)

E-----------------------------------------------------------------
B-----------------------------------------------------------------
G-7-7-7-7-7-7-7-7-------------------------------------------------
D-7-7-7-7-7-7-7-7-7-7-7-7-7-7-7-7-5-5-5-5-5-5-5-5=5-5-5-5-5-5-5-5- X4
A-5-5-5-5-5-5-5-5-7-7-7-7-7-7-7-7-5-5-5-5-5-5-5-5-5-5-5-5-5-5-5-5-
E-----------------5-5-5-5-5-5-5-5-3-3-3-3-3-3-3-3-3-3-3-3-3-3-3-3-
  . . . . . . . . . . . . . . . . . . . . . . . . . . . . . . . . 

AFTER THIS HAS BEEN PLAYED TWICE, GUITAR 2 COMES IN WITH THIS.

E-----------------------------------------------------------------
B-----------------------------------------------------------------
G-7-------------7-------------------------------------------------
D-7-------------7-7-------------7-5-------------5-5-------------5- X2
A-5-------------5-7-------------7-5-------------5-5-------------5-
E-----------------5-------------5-3-------------3-3-------------3-

THIS WILL BE IN TIME WITH THE PALM MUTED CHORDS.

ON THE LAST TIME STOP PALM MUTING SO AS TO LEAD INTO THE CHORUS, GUITAR 2 WILL DO THIS AS WELL.

CHORUS (BOTH GUITARS)

E---------------------------------------------------------------------
B---------------------------------------------------------------------
G-7-7-7-7-------------------------7-7-7-7-----------------------------
D-7-7-7-7-7-7-7-7-9-9-9-9-5-5-5-5-7-7-7-7-7-7-7-7-55-5-55-5-55-5-55-5- X2
A-5-5-5-5-7-7-7-7-9-9-9-9-5-5-5-5-5-5-5-5-7-7-7-7-55-5-55-5-55-5-55-5-
E---------5-5-5-5-7-7-7-7-3-3-3-3---------5-5-5-5-33-3-33-3-33-3-33-3-
                                                  ..   ..   ..   ..   
SECOND VERSE 

GUITAR 1

E-----------------------------------------------------------------
B-----------------------------------------------------------------
G-7-7-7-7-7-7-7-7-------------------------------------------------
D-7-7-7-7-7-7-7-7-7-7-7-7-7-7-7-7-9-9-9-9-9-9-9-9-5-5-5-5-5-5-5-5- X2
A-5-5-5-5-5-5-5-5-7-7-7-7-7-7-7-7-9-9-9-9-9-9-9-9-5-5-5-5-5-5-5-5-
E-----------------5-5-5-5-5-5-5-5-7-7-7-7-7-7-7-7-3-3-3-3-3-3-3-3-
  . . . . . . . . . . . . . . . . . . . . . . . . . . . . . . . .

FOR THE NEXT TWO TIMES PLAY THIS IN TIME WITH THE NORMAL CHORDS, (WHICH THE BASS WILL CARRY
ON PLAYING), UNTIL THE END OF THE VERSE.

D-0-2-4--2-4-5-4-2 


GUITAR 2

E-----------------------------------------------------------------
B-----------------------------------------------------------------
G-7-------------7-------------------------------------------------
D-7-------------7-7-------------7-9-------------9-5---------------
A-5-------------5-7-------------7-9-------------9-5---------------
E-----------------5-------------5-7-------------7-3---------------

PLAY CHORUS, THEN PLAY THIS INTERLUDE

BOTH GUITARS

E------------------------------------------------------------------
B------------------------------------------------------------------
G-7--------------------------7-------------------------------------
D-7--------7--------5--------5--------7--------55-5-55-5-55-5-55-5-
A-5--------5--------5--------5--------7--------55-5-55-5-55-5-55-5-
E----------5--------3-----------------5--------33-3-33-3-33-3-33-3-
(SHE SAID SHE'D.....)                          ..   ..   ..   ..



(GUITAR 1)

B-8--7-5--3=----------------------------------
G----------=----------------------------------  REPEAT FROM = 2 TIMES
D----------=0-2-4--2-0-2-4--2-0-2-4--2-4-5-4-2

(GUITAR 2) 

E-------------------------------------------------
B-------------------------------------------------
G-7-7-7-7-7-7-7-7--------------------------------- PLAY 2 TIMES FROM AFTER 8--7-5--3
D-7-7-7-7-7-7-7-7-7-7-7-7-7-7-7-7-5-5-5-5-5-5-5-5-
A-5-5-5-5-5-5-5-5-7-7-7-7-7-7-7-7-5-5-5-5-5-5-5-5-
E-----------------5-5-5-5-5-5-5-5-3-3-3-3-3-3-3-3-

LAST CHORUS (BOTH GUITARS)

E---------------------------------------------------------------
B---------------------------------------------------------------
G-7-7-77-7----------------------------7-7-77-7------------------
D-7-7-77-7-7-7-77-7-9-9-99-9-5-5-55-5-7-7-77-7-7-7-77-7-9-9-99-9 PLAY TWICE
A-5-5-55-5-7-7-77-7-9-9-99-9-5-5-55-5-5-5-55-5-7-7-77-7-9-9-99-9
E----------5-5-55-5-7-7-77-7-3-3-33-3----------5-5-55-5-7-7-77-7
      ..       ..       ..       ..       ..       ..       ..  

E--------------------
B--------------------
G--------------------
D-55-5-55-5-55-5-55-5
A-55-5-55-5-55-5-55-5
E-33-3-33-3-33-3-33-3

PLAY INTRO 4 MORE TIMES THEN END WITH THE D POWER CHORD.

THAT IS IT. PRETTY SIMPLE. IF YOU THINK THERE ARE ANY MISTAKES PLEASE SEND THEM TO ME.

SONG : THE CLICK 
BAND : GOOD CHARLOTTE
ALBUM : LIFESTYLES OF THE RICH AND FAMOUS (SINGLE)
TABBED BY : CLIVE COATS ccoats_88@hotmail.com
TUNING : STANDARD

 THIS SONG IS VERY EASY TO PLAY AND QUITE FUN. PALM MUTING IS THE ONLY DIFFICULTY WITH THIS
SONG, BUT ONCE YOU GET THE HANG OF IT IS VERY EASY.
.=PALM MUTE

INTRO (GUITAR 1)

D-0-2-4--2-0-2-4--2-0-2-4--2-4-5-4-2--0-2-4--2-0-2-4--2-0-2-4--2-0-- X2 

INTRO (GUITAR 2)

E-------------------------
B-------------------------
G-7-7-7-7-----------------
D-7-7-7-7-7-7-7-7-5-5-5-5- X4
A-5-5-5-5-7-7-7-7-5-5-5-5-
E---------5-5-5-5-3-3-3-3-

VERSE 1 ( GUITAR 1)

E-----------------------------------------------------------------
B-----------------------------------------------------------------
G-7-7-7-7-7-7-7-7-------------------------------------------------
D-7-7-7-7-7-7-7-7-7-7-7-7-7-7-7-7-5-5-5-5-5-5-5-5=5-5-5-5-5-5-5-5- X4
A-5-5-5-5-5-5-5-5-7-7-7-7-7-7-7-7-5-5-5-5-5-5-5-5-5-5-5-5-5-5-5-5-
E-----------------5-5-5-5-5-5-5-5-3-3-3-3-3-3-3-3-3-3-3-3-3-3-3-3-
  . . . . . . . . . . . . . . . . . . . . . . . . . . . . . . . . 

AFTER THIS HAS BEEN PLAYED TWICE, GUITAR 2 COMES IN WITH THIS.

E-----------------------------------------------------------------
B-----------------------------------------------------------------
G-7-------------7-------------------------------------------------
D-7-------------7-7-------------7-5-------------5-5-------------5- X2
A-5-------------5-7-------------7-5-------------5-5-------------5-
E-----------------5-------------5-3-------------3-3-------------3-

THIS WILL BE IN TIME WITH THE PALM MUTED CHORDS.

ON THE LAST TIME STOP PALM MUTING SO AS TO LEAD INTO THE CHORUS, GUITAR 2 WILL DO THIS AS WELL.

CHORUS (BOTH GUITARS)

E---------------------------------------------------------------------
B---------------------------------------------------------------------
G-7-7-7-7-------------------------7-7-7-7-----------------------------
D-7-7-7-7-7-7-7-7-9-9-9-9-5-5-5-5-7-7-7-7-7-7-7-7-55-5-55-5-55-5-55-5- X2
A-5-5-5-5-7-7-7-7-9-9-9-9-5-5-5-5-5-5-5-5-7-7-7-7-55-5-55-5-55-5-55-5-
E---------5-5-5-5-7-7-7-7-3-3-3-3---------5-5-5-5-33-3-33-3-33-3-33-3-
                                                  ..   ..   ..   ..   
SECOND VERSE 

GUITAR 1

E-----------------------------------------------------------------
B-----------------------------------------------------------------
G-7-7-7-7-7-7-7-7-------------------------------------------------
D-7-7-7-7-7-7-7-7-7-7-7-7-7-7-7-7-9-9-9-9-9-9-9-9-5-5-5-5-5-5-5-5- X2
A-5-5-5-5-5-5-5-5-7-7-7-7-7-7-7-7-9-9-9-9-9-9-9-9-5-5-5-5-5-5-5-5-
E-----------------5-5-5-5-5-5-5-5-7-7-7-7-7-7-7-7-3-3-3-3-3-3-3-3-
  . . . . . . . . . . . . . . . . . . . . . . . . . . . . . . . .

FOR THE NEXT TWO TIMES PLAY THIS IN TIME WITH THE NORMAL CHORDS, (WHICH THE BASS WILL CARRY
ON PLAYING), UNTIL THE END OF THE VERSE.

D-0-2-4--2-4-5-4-2 


GUITAR 2

E-----------------------------------------------------------------
B-----------------------------------------------------------------
G-7-------------7-------------------------------------------------
D-7-------------7-7-------------7-9-------------9-5---------------
A-5-------------5-7-------------7-9-------------9-5---------------
E-----------------5-------------5-7-------------7-3---------------

PLAY CHORUS, THEN PLAY THIS INTERLUDE

BOTH GUITARS

E------------------------------------------------------------------
B------------------------------------------------------------------
G-7--------------------------7-------------------------------------
D-7--------7--------5--------5--------7--------55-5-55-5-55-5-55-5-
A-5--------5--------5--------5--------7--------55-5-55-5-55-5-55-5-
E----------5--------3-----------------5--------33-3-33-3-33-3-33-3-
(SHE SAID SHE'D.....)                          ..   ..   ..   ..



(GUITAR 1)

B-8--7-5--3=----------------------------------
G----------=----------------------------------  REPEAT FROM = 2 TIMES
D----------=0-2-4--2-0-2-4--2-0-2-4--2-4-5-4-2

(GUITAR 2) 

E-------------------------------------------------
B-------------------------------------------------
G-7-7-7-7-7-7-7-7--------------------------------- PLAY 2 TIMES FROM AFTER 8--7-5--3
D-7-7-7-7-7-7-7-7-7-7-7-7-7-7-7-7-5-5-5-5-5-5-5-5-
A-5-5-5-5-5-5-5-5-7-7-7-7-7-7-7-7-5-5-5-5-5-5-5-5-
E-----------------5-5-5-5-5-5-5-5-3-3-3-3-3-3-3-3-

LAST CHORUS (BOTH GUITARS)

E----------------------------------------------------------------
B----------------------------------------------------------------
G-7-7-77-7----------------------------7-7-77-7-------------------
D-7-7-77-7-7-7-77-7-9-9-99-9-5-5-55-5-7-7-77-7-7-7-77-7-9-9-99-9-
A-5-5-55-5-7-7-77-7-9-9-99-9-5-5-55-5-5-5-55-5-7-7-77-7-9-9-99-9-
E----------5-5-55-5-7-7-77-7-3-3-33-3----------5-5-55-5-7-7-77-7-
      ..       ..       ..       ..       ..       ..       ..  

E--------------------
B--------------------
G--------------------
D-55-5-55-5-55-5-55-5 PLAY TWICE
A-55-5-55-5-55-5-55-5
E-33-3-33-3-33-3-33-3

PLAY INTRO 4 MORE TIMES THEN END WITH THE D POWER CHORD.

THAT IS IT. PRETTY SIMPLE. IF YOU THINK THERE ARE ANY MISTAKES PLEASE SEND THEM TO ME.
Comments