Good Charlotte - The Click Chords & Tabs

 

The Click Chords & Tabs

Good Charlotte Chords & Tabs

Version: 1 Type: Bass Tab 0 ratings
1 star 2 stars 3 stars 4 stars 5 stars
comments

The Click Bass Tab

   
-------------------------------------------------------------------------------
			    The Click - Good Charlotte
-------------------------------------------------------------------------------

Artist: Good Charlotte
Song: The Click
Albulm: Good Charlotte (Track 10)
Tabbed By : Zero is Great man
Tuning: BEADG

Intro:
G|------------------------------|
D|------------------------------|
A|-5---------5------------------|
E|---5--3------5--3-3-3-3-3-3-3-|
B|------------------------------|

(cont.)
G|------------------------------------------------------------------------|
D|------------------------------------------------------------------------|
A|-5-5-5-5------------------------------5-5-5-5---------------------------|
E|----------5-5-5-5----3-3-3-3-3-3-3-3-----------5-5-5-5--3-3-3-3-3-3-3-3-|

Verse: "Just because I walk like obi-wankobi..."
G|---------------------------------------------------|
D|---------------------------------------------------|
A|-5-5-5-5-5-5---------------------------------------|
E|--------------5-5-5-5-5-5--3-3-3-3-3-3-3-3-3-3-3-3-|

Chorus: "You go out on friday night."
G|------------------------------------|
D|------------------------------------|
A|-5-5-5-5----------------------------|
E|----------5-5-5-5--7-7-7-7--3-3-3-3-|
B|-------------------0-0-0-0----------|
[ Tab from: http://www.guitartabs.cc/tabs/g/good_charlotte/the_click_btab.html ]
"Cause I have found the click to call my own..."
G|-------------------------------------------|
D|-------------------------------------------|
A|-5-5-5-5-----------------------------------|
E|----------5-5-5-5--x-x-3-x-x-3-x-x-3-x-x-3-|
B|-------------------------------------------|

Bridge:"She said she call"
G|--------------|
D|--------------|
A|-5------------|
E|----5--3--0-3-|
B|--------------|

"But I know she won't"
G|-----------------------------------------------------------|
D|-----------------------------------------------------------|
A|-5-5-5-5-5-5-5-5-------------------------------------------|
E|------------------5-5-5-5-5-5-5-5--x-x-3-x-x-3-x-x-3-x-x-3-|
B|-----------------------------------------------------------|

"She won't"
G|---------------------------|
D|---------------------------|
A|---------------------------|
E|-3-3-3-2-2-2-0-0-0-------0-|
B|-------------------3-3-3---|

Break down: "You got out on friday night"
G|------------------------------------|
D|------------------------------------|
A|-5-5-x-x----------------------------|
E|----------5-5-x-x--7-7-x-x--5-5-x-x-|
B|-------------------0-0--------------|

Outro:
G|-------|
D|-------|
A|-5-----|
E|---5-3-|
B|-------|

| /  slide up
| \  slide down
| h  hammer-on
| p  pull-off
| ~  vibrato
| +  harmonic
| x  Mute note

===============================================================================
Comments