Good Charlotte - The Chronicles Of Life And Death Chords & Tabs

 

The Chronicles Of Life And Death Chords & Tabs

Good Charlotte Chords & Tabs

Version: 8 Type: Tab 0 ratings
1 star 2 stars 3 stars 4 stars 5 stars
comments

The Chronicles Of Life And Death Tab

Artist: Good Charlotte
Song: The Chronicles Of Life And Death

Standard Tuning


Verse 

e |-------------------------|
B |-------------------------|
G |-------------------------|
D |---4--10--9--6-----------| (Palm Mute)
A |---4--10--9--6-----------| (X2)
E |---2--8---7--4-----------|

e |-------------------------|
B |-------------------------|
G |-------------------------|
D |---4--10--9--6-----------|
A |---4--10--9--6-----------| (X2)
E |---2--8---7--4-----------|

End verse with: 

e|-----|
B|-----|                   
G|-----|
D|--2--|
A|--2--|
E|--0--|

Chorus: 

e|--------------------|
B|--------------------|                   
G|--4--6--11--9-------|
D|--4--6--11--9-------|
A|--2--4--9---7-------|(X3)
E|--------------------|

e|----------|
B|----------|                   
G|--4--6----|
D|--4--6----|
A|--2--4----|
E|----------|

Verse

e |-------------------------|
B |-------------------------|
G |-------------------------|
D |---4--10--9--6-----------|
A |---4--10--9--6-----------| (X4)
E |---2--8---7--4-----------|

End Verse On

e|-----|
B|-----|                   
G|-----|
D|--2--|
A|--2--|
E|--0--|

Repeat Chorus (X1)


Solo

Part 1 (X2)
[ Tab from: http://www.guitartabs.cc/tabs/g/good_charlotte/the_chronicles_of_life_and_death_tab_ver_8.html ]
e|---------------------------------------------|
B|---------------------------------------------|                   
G|---------------------------------------------|
D|-----8-6-----6-4-3---4-3-1-------------------|
A|---6-----9-4-------2---------2-4-------------|
E|---------------------------------------------|

Part 2

e|------------------------------------------------------|
B|------------------------------------------------------                   
G|------------------------------------------9--13--16---|
D|----4-3-4----6-4-3--------8-6-----6-4-3---9--13--16---|
A|--6-------6--------6-5--6-----9-4---------7--11--14---|
E|------------------------------------------------------|


Chorus: 

e|--------------------|
B|--------------------|                   
G|--4--6--11--9-------|
D|--4--6--11--9-------|(Palm Mute)
A|--2--4--9---7-------|(X1)
E|--------------------|

e|--------------------|
B|--------------------|                   
G|--4--6--11--9-------|
D|--4--6--11--9-------|
A|--2--4--9---7-------|(X2)
E|--------------------|

e|----------|
B|----------|                   
G|--4--6----|
D|--4--6----|
A|--2--4----| (X3)
E|----------|

Outro

e |-------------------------|
B |-------------------------|
G |-------------------------|
D |---4--10--9--6-----------| 
A |---4--10--9--6-----------|(X1)
E |---2--8---7--4-----------|

End On

e|-----|
B|-----|                   
G|-----|
D|--2--|
A|--2--|
E|--0--|
Comments