Good Charlotte - The Chronicles Of Life And Death Chords & Tabs

 

The Chronicles Of Life And Death Chords & Tabs

Good Charlotte Chords & Tabs

Version: 7 Type: Tab 0 ratings
1 star 2 stars 3 stars 4 stars 5 stars
comments

The Chronicles Of Life And Death Tab

   
 The Chronicles of Life and Death

Tuning, 1/2 step down ( eb,Bb,Gb,Db,Ab,eb )


Intro (you come in cold)

eb|------------------------------------|   x2
Bb|------------------------------------|
Gb|----------6-6-6-6--5-5-5-5----------|
Db|-5-5-5-5--6-6-6-6--5-5-5-5--7-7-7-7-|
Ab|-5-5-5-5--4-4-4-4--3-3-3-3--7-7-7-7-|
Eb|-3-3-3-3--------------------5-5-5-5-|
PM  . . . .  . . . .  . . . .  . . . .


Verse 1
                                   x2
eb|-----------------------------------|------|
Bb|-----------------------------------|------|
Gb|----------6-6-6-6--5-5-5-5---------|------|
Db|-5-5-5-5--6-6-6-6--5-5-5-5--777777-|-3~~~-|
Ab|-5-5-5-5--4-4-4-4--3-3-3-3--777777-|-3~~~-|
Eb|-3-3-3-3--------------------555555-|-1~~~-|
PM  .   .    .   .    .   .    


Chorus

eb|-----------------------------------------------------|
Bb|-----------------------------------------------------|
Gb|-5-x-5-x-5-x-5--x-7-x-7-x-7-x-7--x-12-x-12-x-12-x-12-|
Db|-5-x-5-x-5-x-5--x-7-x-7-x-7-x-7--x-12-x-12-x-12-x-12-|
Ab|-3-x-3-x-3-x-3--x-5-x-5-x-5-x-5--x-10-x-10-x-10-x-10-|
Eb|-----------------------------------------------------|

eb|-----------------------|
Bb|-----------------------|
Gb|-x-10-x-10-x-10-x-10-x-|  x 3
Db|-x-10-x-10-x-10-x-10-x-|
Ab|-x--8-x--8-x--8-x--8-x-|
Eb|-----------------------|

eb|-------------------|
Bb|-------------------|
Gb|-55555555-77777777-|
Db|-55555555-77777777-|
Ab|-33333333-55555555-|
Eb|-------------------|

Pre-verse
[ Tab from: http://www.guitartabs.cc/tabs/g/good_charlotte/the_chronicles_of_life_and_death_tab_ver_7.html ]
eb|-----------------------------------|
Bb|-----------------------------------|
Gb|----------6-6-6-6--5-5-5-5---------|
Db|-5-5-5-5--6-6-6-6--5-5-5-5--777777-|
Ab|-5-5-5-5--4-4-4-4--3-3-3-3--777777-|
Eb|-3-3-3-3--------------------555555-|
PM  .   .    .   .    .   .    


Verse 2
                                    x3
eb|-----------------------------------|------|
Bb|-----------------------------------|------|
Gb|----------6-6-6-6--5-5-5-5---------|------|
Db|-5-5-5-5--6-6-6-6--5-5-5-5--777777-|-3~~~-|
Ab|-5-5-5-5--4-4-4-4--3-3-3-3--777777-|-3~~~-|
Eb|-3-3-3-3--------------------555555-|-1~~~-|



Play Chorus



Solo

eb|-----------------------------------------|
Bb|-----------------------------------------|
Gb|-----------------------------------------|
Db|-----9-7---------7-5-4~-----5-4-2~-------|  x2
Ab|--7------10~--5----------3----------3--5-|
Eb|-----------------------------------------|



eb|---------------------------------------------------|
Bb|---------------------------------------------------|
Gb|---------------------------------------------------|
Db|-----5-4-5------7--5-4----------9-7---------7-5-4~-|
Ab|--7--------7~----------7-6~--7------10~--5---------|
Eb|---------------------------------------------------|


eb|--------------------------------------------------|
Bb|--------------------------------------------------|
Gb|-101010101010101014141414141414141717171717171717-|
Db|-x-x-x-x-x-x-x-x-x-x-x-x-x-x-x-x-x-x-x-x-x-x-x-x--|
Ab|-8-8-8-8-8-8-8-8 12121212121212121215151515151515-|
Eb|--------------------------------------------------|


Play intro

Play chorus

Play verse
Comments