Good Charlotte - The Chronicles Of Life And Death Chords & Tabs

 

The Chronicles Of Life And Death Chords & Tabs

Good Charlotte Chords & Tabs

Version: 6 Type: Tab 0 ratings
1 star 2 stars 3 stars 4 stars 5 stars
comments

The Chronicles Of Life And Death Tab

   
Song: The Chronicles Of Life And Death
Artist: Good Charlotte
Album: The Chronicles Of Life And Death
Tabbed by: Mickey Doyle

Verse 1

E|---------------------------------|
B|---------------------------------|
G|---------------------------------|
D|---------5-5-5-5-4-4-4-4---------|
A|-4-4-4-4-3-3-3-3-2-2-2-2-6-6-6-6-|
E|-2-2-2-2-----------------4-4-4-4-|
Pm.[------------------------------]

E|---------------------------------|
B|---------------------------------|
G|---------------------------------|
D|---------5-5-5-5-4-4-4-4---------|
A|-4-4-4-4-3-3-3-3-2-2-2-2-6-6-6-6-|
E|-2-2-2-2-----------------4-4-4-4-|
Pm.[------------------------------]

E|---------------------------------------------|
B|---------------------------------------------|
G|-----------5-5-5-5-4-4-4-4-------------------|
D|---4-4-4----------------------6-6-6-6--6-6-6-|
A|-----------3-3-3-3-2-2-2-2-------------------|
E|---2-2-2----------------------4-4-4-4--4-4-4-|

E|------------------------------------------------|
B|------------------------------------------------|
G|-----------5-5-5-5-4-4-4-4----------------------|
D|-4-4-4-4----------------------6-6-6-6--6-6-6--2-|
A|-----------3-3-3-3-2-2-2-2--------------------2-|
E|-2-2-2-2----------------------4-4-4-4--4-4-4--0-|

Chorus

E|---------------------------------------------------------------|
B|---------------------------------------------------------------|
G|-4-x-4-x-4-x-4-x-5-x-5-x-5-x-5---------------------------------|
D|-4-x-4-x-4-x-4-x-5-x-5-x-5-x-5-4-x-4-x-4-x-4-x-4-x-4-x-4-x-4-x-|
A|-2-x-2-x-2-x-2-x-3-x-3-x-3-x-3-4-x-4-x-4-x-4-x-4-x-4-x-4-x-4-x-|
E|-------------------------------2-x-2-x-2-x-2-x-2-x-2-x-2-x-2-x-|

E|---------------------------------------------------------------|
B|---------------------------------------------------------------|
G|-4-x-4-x-4-x-4-x-5-x-5-x-5-x-5---------------------------------|
D|-4-x-4-x-4-x-4-x-5-x-5-x-5-x-5-4-x-4-x-4-x-4-x-4-x-4-x-4-x-4-x-|
A|-2-x-2-x-2-x-2-x-3-x-3-x-3-x-3-4-x-4-x-4-x-4-x-4-x-4-x-4-x-4-x-|
E|-------------------------------2-x-2-x-2-x-2-x-2-x-2-x-2-x-2-x-|

E|---------------------------------------------------------------|
B|---------------------------------------------------------------|
G|-4-x-4-x-4-x-4-x-5-x-5-x-5-x-5---------------------------------|
D|-4-x-4-x-4-x-4-x-5-x-5-x-5-x-5-4-x-4-x-4-x-4-x-2-x-2-x-2-x-2-x-|
A|-2-x-2-x-2-x-2-x-3-x-3-x-3-x-3-4-x-4-x-4-x-4-x-2-x-2-x-2-x-2-x-|
E|-------------------------------2-x-2-x-2-x-2-x-0-x-0-x-0-x-0-x-|


E|---------------------------------|
B|---------------------------------|
G|-4-4-4-4-4-4-4-5-5-5-5-5-5-5-5-5-|
D|-4-4-4-4-4-4-4-5-5-5-5-5-5-5-5-5-|
A|-2-2-2-2-2-2-2-2-3-3-3-3-3-3-3-3-|
E|---------------------------------|

Verse 2

E|--------------------------------------------------|
B|--------------------------------------------------|
G|--------------------------4----4------------------|
D|----4----4----5----5---------------6-6-6-6--6-6-6-|
A|--------------------------2----2------------------|
E|----2----2----3----3---------------4-4-4-4--4-4-4-|

E|---------------------------------------------|
B|---------------------------------------------|
G|-----------5-5-5-5-4-4-4-4-------------------|
D|-4-4-4-4----------------------6-6-6-6--6-6-6-|
A|-----------3-3-3-3-2-2-2-2-------------------|
E|-2-2-2-2----------------------4-4-4-4--4-4-4-|

E|---------------------------------------------|
B|---------------------------------------------|
G|-----------5-5-5-5-4-4-4-4-------------------|
D|-4-4-4-4----------------------6-6-6-6--6-6-6-|
A|-----------3-3-3-3-2-2-2-2-------------------|
E|-2-2-2-2----------------------4-4-4-4--4-4-4-|

E|------------------------------------------------|
B|------------------------------------------------|
G|-----------5-5-5-5-4-4-4-4----------------------|
D|-4-4-4-4----------------------6-6-6-6--6-6-6--2-|
A|-----------3-3-3-3-2-2-2-2--------------------2-|
E|-2-2-2-2----------------------4-4-4-4--4-4-4--0-|


Chorus

Bridge
[ Tab from: http://www.guitartabs.cc/tabs/g/good_charlotte/the_chronicles_of_life_and_death_tab_ver_6.html ]
E|-----------------------------------------------------------------|
B|-----------------------------------------------------------------|
G|-8-x-8-x-8-x-8-x-6-x-6-x-6-x-6-x-4-x-4-x-4-x-4-x-4-x-4-x-4-x-4-x-|
D|-8-x-8-x-8-x-8-x-6-x-6-x-6-x-6-x-4-x-4-x-4-x-4-x-4-x-4-x-4-x-4-x-|
A|-6-x-6-x-6-x-6-x-4-x-4-x-4-x-4-x-2-x-2-x-2-x-2-x-2-x-2-x-2-x-2-x-|
E|-----------------------------------------------------------------|

E|-----------------------------------------------------------------|
B|-----------------------------------------------------------------|
G|-8-x-8-x-8-x-8-x-6-x-6-x-6-x-6-x-4-x-4-x-4-x-4-x-4-x-4-x-4-x-4-x-|
D|-8-x-8-x-8-x-8-x-6-x-6-x-6-x-6-x-4-x-4-x-4-x-4-x-4-x-4-x-4-x-4-x-|
A|-6-x-6-x-6-x-6-x-4-x-4-x-4-x-4-x-2-x-2-x-2-x-2-x-2-x-2-x-2-x-2-x-|
E|-----------------------------------------------------------------|

E|-----------------------------------------------------------------|
B|-----------------------------------------------------------------|
G|-8-x-8-x-8-x-8-x-6-x-6-x-6-x-6-x-4-x-4-x-4-x-4-x-4-x-4-x-4-x-4-x-|
D|-8-x-8-x-8-x-8-x-6-x-6-x-6-x-6-x-4-x-4-x-4-x-4-x-4-x-4-x-4-x-4-x-|
A|-6-x-6-x-6-x-6-x-4-x-4-x-4-x-4-x-2-x-2-x-2-x-2-x-2-x-2-x-2-x-2-x-|
E|-----------------------------------------------------------------|
 
E|--------------------------------------------------------|
B|--------------------------------------------------------|
G|--8--------6-------11-11-11-11-11-11--11-11-11-11-11-11-|
D|--8--------6--------------------------------------------|
A|--6--------4-------9--9--9--9-9--9---9--9--9--9--9--9--|
E|--------------------------------------------------------|

E|--------------------------------------|
B|--------------------------------------|
G|-13-13-13-13-13-13--16-16-16-16-16-16-|
D|--------------------------------------|
A|-11-11-11-11-11-11--14-14-14-14-14-14-|
E|--------------------------------------|

Chorus

E|---------------------------|
B|---------------------------|
G|---------------------------|
D|-4-4-4-4-6-6-6-6-----------|
A|-2-2-2-2-4-4-4-4-4-4-4-4-4-|
E|-----------------2-2-2-2-2-|
Pm.[------------------------]

E|-------------|
B|-------------|
G|-------------|
D|-4-4-4-4-4-4-|
A|-4-4-4-4-4-4-|
E|-2-2-2-2-2-2-|

E|---------------------------------------------------------------|
B|---------------------------------------------------------------|
G|-4-x-4-x-4-x-4-x-5-x-5-x-5-x-5---------------------------------|
D|-4-x-4-x-4-x-4-x-5-x-5-x-5-x-5-4-x-4-x-4-x-4-x-4-x-4-x-4-x-4-x-|
A|-2-x-2-x-2-x-2-x-3-x-3-x-3-x-3-4-x-4-x-4-x-4-x-4-x-4-x-4-x-4-x-|
E|-------------------------------2-x-2-x-2-x-2-x-2-x-2-x-2-x-2-x-|

E|-----------------------------------|
B|-----------------------------------|
G|-4-x-4-x-4-x-4-x-5-x-5-x-5-x-5-x---|
D|-4-x-4-x-4-x-4-x-5-x-5-x-5-x-5-x-4-|
A|-2-x-2-x-2-x-2-x-3-x-3-x-3-x-3-x-4-|
E|---------------------------------2-|

E|--------------------------|
B|--------------------------|
G|--------------------------|
D|-4-4-4-4-4-4--4-4-4-4-4-4-|
A|-4-4-4-4-4-4--4-4-4-4-4-4-|
E|-2-2-2-2-2-2--2-2-2-2-2-2-|

E|-----------------------------------------------------------------|
B|-----------------------------------------------------------------|
G|-4-x-4-x-4-x-4-x-6-x-6-x-6-x-6-x-4-x-4-x-4-x-4-x-6-x-6-x-6-x-6-x-|
D|-4-x-4-x-4-x-4-x-6-x-6-x-6-x-6-x-4-x-4-x-4-x-4-x-6-x-6-x-6-x-6-x-|
A|-2-x-2-x-2-x-2-x-4-x-4-x-4-x-4-x-2-x-2-x-2-x-2-x-4-x-4-x-4-x-4-x-|
E|-----------------------------------------------------------------|

E|---------------------------------|
B|---------------------------------|
G|-4-x-4-x-4-x-4-x-6-x-6-x-6-x-6-x-|
D|-4-x-4-x-4-x-4-x-6-x-6-x-6-x-6-x-|
A|-2-x-2-x-2-x-2-x-4-x-4-x-4-x-4-x-|
E|---------------------------------|

E|------------------------------------------------|
B|------------------------------------------------|
G|-----------5-5-5-5-4-4-4-4----------------------|
D|-4-4-4-4----------------------6-6-6-6--6-6-6--2-|
A|-----------3-3-3-3-2-2-2-2--------------------2-|
E|-2-2-2-2----------------------4-4-4-4--4-4-4--0-|
Comments