Good Charlotte - The Chronicles Of Life And Death Chords & Tabs

 

The Chronicles Of Life And Death Chords & Tabs

Good Charlotte Chords & Tabs

Version: 4 Type: Tab 0 ratings
1 star 2 stars 3 stars 4 stars 5 stars
comments

The Chronicles Of Life And Death Tab

   
Song:   Chronicles of life and death
Artist: Good charlotte
Tabber: Jeanke VG
email:  janvangulck@hotmail.com

Standard Tuning: E A D G B E




Intro:



(0:00)

Guitar 1:

e|------14------------|------14------------|
B|--------------------|--------------------|
G|--------------------|--------------------|
D|--------------------|--------------------|
A|--------------------|--------------------|
E|--------------------|--------------------|



(0:03)

Guitar 1:

e|-------14-----------|-------14-----------|-------14-----------|-------14-----------|
B|--------------------|--------------------|--------------------|--------------------|
G|--------------------|--------------------|--------------------|--------------------|
D|--------------------|--------------------|--------------------|--------------------|
A|--------------------|--------------------|--------------------|--------------------|
E|--------------------|--------------------|--------------------|--------------------|


Guitar 2: (Acoustic and Palm Muted)

e|--------------------|--------------------|--------------------|--------------------|
B|--------------------|--------------------|--------------------|--------------------|
G|--------------------|--5-5--5----5----5--|--4-4--4----4----4--|--------------------|
D|--4-4--4----4----4--|--5-5--5----5----5--|--4-4--4----4----4--|--6-6--6----6----6--|
A|--4-4--4----4----4--|--3-3--3----3----3--|--2-2--2----2----2--|--6-6--6----6----6--|
E|--2-2--2----2----2--|--------------------|--------------------|--4-4--4----4----4--|



(0:11)



Guitar 1:

e|-------14-----------|-------14-----------|-------14-----------|-------14-----------|
B|--------------------|--------------------|--------------------|--------------------|
G|----6---------------|----5---------------|----4---------------|----1---------------|
D|--------------------|--------------------|--------------------|--------------------|
A|--------------------|--------------------|--------------------|--------------------|
E|--------------------|--------------------|--------------------|--------------------|


Guitar 2: (Acoustic and Palm Muted)

e|--------------------|--------------------|--------------------|--------------------|
B|--------------------|--------------------|--------------------|--------------------|
G|--------------------|--5-5--5----5----5--|--4-4--4----4----4--|--------------------|
D|--4-4--4----4----4--|--5-5--5----5----5--|--4-4--4----4----4--|--6-6--6----6----6--|
A|--4-4--4----4----4--|--3-3--3----3----3--|--2-2--2----2----2--|--6-6--6----6----6--|
E|--2-2--2----2----2--|--------------------|--------------------|--4-4--4----4----4--|







Verse:



(0:16)


Guitar 1:

e|--------------------|--------------------|--------------------|--------------------|
B|--------------------|--------------------|--------------------|--------------------|
G|----6---------------|----5---------------|----4---------------|----1---------------|
D|--------------------|--------------------|--------------------|--------------------|
A|--------------------|--------------------|--------------------|--------------------|
E|--------------------|--------------------|--------------------|--------------------|


e|--------------------|--------------------|----7---------------|--------------------|
B|-----7--------------|----9---------------|--------------------|----9---------------|
G|--------------------|--------------------|--------------------|--------------------|
D|--------------------|--------------------|--------------------|--------------------|
A|--------------------|--------------------|--------------------|--------------------|
E|--------------------|--------------------|--------------------|--------------------|




Guitar 2: (Distortion and Palm Muted)


e|--------------------|--------------------|--------------------|--------------------|
B|--------------------|--------------------|--------------------|--------------------|
G|--------------------|--5-5--5----5----5--|--4-4--4----4----4--|--------------------|
D|--4-4--4----4----4--|--5-5--5----5----5--|--4-4--4----4----4--|--6-6--6----6----6--|
A|--4-4--4----4----4--|--3-3--3----3----3--|--2-2--2----2----2--|--6-6--6----6----6--|
E|--2-2--2----2----2--|--------------------|--------------------|--4-4--4----4----4--|

e|--------------------|--------------------|--------------------|--------------------|
B|--------------------|--------------------|--------------------|--------------------|
G|--------------------|--5-5--5----5----5--|--4-4--4----4----4--|--------------------|
D|--4-4--4----4----4--|--5-5--5----5----5--|--4-4--4----4----4--|--6-6--6----6----6--|
A|--4-4--4----4----4--|--3-3--3----3----3--|--2-2--2----2----2--|--6-6--6----6----6--|
E|--2-2--2----2----2--|--------------------|--------------------|--4-4--4----4----4--|


e|-----|
B|-----|                   
G|-----|
D|--2--|
A|--2--|
E|--0--|



Chorus: 


(0:31)

repeat 3X


Guitar 1:

    B    B    B    B     C#   C#   C#   C#    F#   F#   F#   F#    E    E    E    E

e|--2----2----2----2--|--4----4----4----4--|--9----9----9----9--|--9----9----9----9--|
B|--4----4----4----4--|--6----6----6----6--|--11---11---11---11-|--11---11---11---11-|
G|--4----4----4----4--|--6----6----6----6--|--11---11---11---11-|--11---11---11---11-|
D|--4----4----4----4--|--6----6----6----6--|--11---11---11---11-|--11---11---11---11-|
A|--2----2----2----2--|--4----4----4----4--|--9----9----9----9--|--9----9----9----9--|
E|--2----2----2----2--|--4----4----4----4--|--9----9----9----9--|--9----9----9----9--|


Guitar 2:


e|--------------------|--------------------|--------------------|--------------------|
B|--------------------|--------------------|--------------------|--------------------|
G|--4----4----4----4--|--6----6----6----6--|--11---11---11---11-|--9----9----9----9--|
D|--4----4----4----4--|--6----6----6----6--|--11---11---11---11-|--9----9----9----9--|
A|--2----2----2----2--|--4----4----4----4--|--9----9----9----9--|--7----7----7----7--|
E|--------------------|--------------------|--------------------|--------------------|



(0:53)

Both Guitars

e|--------------------|--------------------|
B|--------------------|--------------------|
G|--4-4-4-4-4-4-4-4---|--6-6-6-6-6-6-6-6---|
D|--4-4-4-4-4-4-4-4---|--6-6-6-6-6-6-6-6---|
A|--2-2-2-2-2-2-2-2---|--4-4-4-4-4-4-4-4---|
E|--------------------|--------------------|




Verse:

(0:56)

Repeat 4X

Guitar 1:


e|-------14-----------|-------14-----------|-------14-----------|--------------------|
B|--------------------|--------------------|--------------------|--------------------|
G|----6---------------|----5---------------|----4---------------|----1---------------|
D|--------------------|--------------------|--------------------|--------------------|
A|--------------------|--------------------|--------------------|--------------------|
E|--------------------|--------------------|--------------------|--------------------|



Guitar 2: (Palm Muted)


e|--------------------|--------------------|--------------------|--------------------|
B|--------------------|--------------------|--------------------|--------------------|
G|--------------------|--5-5--5----5----5--|--4-4--4----4----4--|--------------------|
D|--4-4--4----4----4--|--5-5--5----5----5--|--4-4--4----4----4--|--6-6--6----6----6--|
A|--4-4--4----4----4--|--3-3--3----3----3--|--2-2--2----2----2--|--6-6--6----6----6--|
E|--2-2--2----2----2--|--------------------|--------------------|--4-4--4----4----4--|


(1:22)


e|-----|
B|-----|
G|-----|
D|--2--|
A|--2--|
E|--0--|





Chorus: 


(1:25)

repeat 3X


Guitar 1:

    B    B    B    B     C#   C#   C#   C#    F#   F#   F#   F#    E    E    E    E

e|--2----2----2----2--|--4----4----4----4--|--9----9----9----9--|--9----9----9----9--|
B|--4----4----4----4--|--6----6----6----6--|--11---11---11---11-|--11---11---11---11-|
G|--4----4----4----4--|--6----6----6----6--|--11---11---11---11-|--11---11---11---11-|
D|--4----4----4----4--|--6----6----6----6--|--11---11---11---11-|--11---11---11---11-|
A|--2----2----2----2--|--4----4----4----4--|--9----9----9----9--|--9----9----9----9--|
E|--2----2----2----2--|--4----4----4----4--|--9----9----9----9--|--9----9----9----9--|


Guitar 2:


e|--------------------|--------------------|--------------------|--------------------|
B|--------------------|--------------------|--------------------|--------------------|
G|--4----4----4----4--|--6----6----6----6--|--11---11---11---11-|--9----9----9----9--|
D|--4----4----4----4--|--6----6----6----6--|--11---11---11---11-|--9----9----9----9--|
A|--2----2----2----2--|--4----4----4----4--|--9----9----9----9--|--7----7----7----7--|
E|--------------------|--------------------|--------------------|--------------------|



(1:45)

Both Guitars

e|--------------------|--------------------|
B|--------------------|--------------------|
G|--4----4----4----4--|--6----6----6----6--|
D|--4----4----4----4--|--6----6----6----6--|
A|--2----2----2----2--|--4----4----4----4--|
E|--------------------|--------------------|






Solo:

(1:49)

Repeat 2X

Guitar 1:


e|--------------------|--------------------|--------------------|--------------------|
B|--------------------|--------------------|--------------------|--------------------|                   
G|--------------------|--------------------|--------------------|--------------------|
D|-------8----6-------|-------6----4----3--|-------4----3----1--|--------------------|
A|--6--------------9--|--4-----------------|--2-----------------|--2---------4-------|
E|--------------------|--------------------|--------------------|--------------------|


Guitar 2:


e|--------------------|--------------------|--------------------|--------------------|
B|--------------------|--------------------|--------------------|--------------------|
G|--8----8----8----8--|--6----6----6----6--|--4----4----4----4--|--4----4----6----6--|
D|--8----8----8----8--|--6----6----6----6--|--4----4----4----4--|--4----4----6----6--|
A|--6----6----6----6--|--4----4----4----4--|--2----2----2----2--|--2----2----4----4--|
E|--------------------|--------------------|--------------------|--------------------|



(2:02)


Guitar 1:
[ Tab from: http://www.guitartabs.cc/tabs/g/good_charlotte/the_chronicles_of_life_and_death_tab_ver_4.html ]
e|--------------------|--------------------|--------------------|--------------------|
B|--------------------|--------------------|--------------------|--------------------|              
G|--------------------|--------------------|--------------------|--------------------|
D|------------4----3--|-------4------------|---6--------4----3--|--------------------|
A|--6-----------------|-------------6------|--------------------|-------6----5-------|
E|--------------------|--------------------|--------------------|--------------------|

e|--------------------|--------------------|--------------------|-------------------------|
B|--------------------|--------------------|--------------------|-------------------------|
G|--------------------|--------------------|--9-9-9-9-9-9-9-9---|-13-13-13-13-16-16-16-16-|
D|-------8----6-------|-------6----4----3--|--9-9-9-9-9-9-9-9---|-13-13-13-13-16-16-16-16-|
A|--6--------------9--|--4-----------------|--7-7-7-7-7-7-7-7---|-11-11-11-11-14-14-14-14-|
E|--------------------|--------------------|--------------------|-------------------------|

Guitar 2:


e|--------------------|--------------------|--------------------|--------------------|
B|--------------------|--------------------|--------------------|--------------------|
G|--8----8----8----8--|--6----6----6----6--|--4----4----4----4--|--4----4----4----4--|
D|--8----8----8----8--|--6----6----6----6--|--4----4----4----4--|--4----4----4----4--|
A|--6----6----6----6--|--4----4----4----4--|--2----2----2----2--|--2----2----2----2--|
E|--------------------|--------------------|--------------------|--------------------|


e|--------------------|--------------------|--------------------|--------------------|
B|--------------------|--------------------|--------------------|--------------------|
G|--8-----------------|--6-----------------|--4----4----4----4--|--4----4----4----4--|
D|--8-----------------|--6-----------------|--4----4----4----4--|--4----4----4----4--|
A|--6-----------------|--4-----------------|--2----2----2----2--|--2----2----2----2--|
E|--------------------|--------------------|--------------------|--------------------|



Interlude:

(2:14)

Guitar 1:

e|-------14-----------|-------14-----------|-------14-----------|--------------------|
B|--------------------|--------------------|--------------------|--------------------|
G|--------------------|--------------------|--------------------|--------------------|
D|--------------------|--------------------|--------------------|--------------------|
A|--------------------|--------------------|--------------------|--------------------|
E|--------------------|--------------------|--------------------|--------------------|


Guitar 2: (Acoustic)

                                                                   F#

e|-------2------------|-------2----1-------|-------2------------|--2-----------------|
B|------------4-------|--------------------|------------2-------|--2-----------------|
G|--4--------------4--|--1--------------4--|-----------------3--|--3-----------------|
D|--------------------|--------------------|--4-----------------|--4-----------------|
A|--------------------|--------------------|--------------------|--4-----------------|
E|--------------------|--------------------|--------------------|--2-----------------|



Chorus: 


(2:23)


Guitar 1:

    B    B    B    B     C#   C#   C#   C#    F#   F#   F#   F#    E    E    E    E

e|--2----2----2----2--|--4----4----4----4--|--9----9----9----9--|--9----9----9----9--|
B|--4----4----4----4--|--6----6----6----6--|--11---11---11---11-|--11---11---11---11-|
G|--4----4----4----4--|--6----6----6----6--|--11---11---11---11-|--11---11---11---11-|
D|--4----4----4----4--|--6----6----6----6--|--11---11---11---11-|--11---11---11---11-|
A|--2----2----2----2--|--4----4----4----4--|--9----9----9----9--|--9----9----9----9--|
E|--2----2----2----2--|--4----4----4----4--|--9----9----9----9--|--9----9----9----9--|


Guitar 2:


e|--------------------|--------------------|--------------------|--------------------|
B|--------------------|--------------------|--------------------|--------------------|
G|--4----4----4----4--|--6----6----6----6--|--11---11---11---11-|--9----9----9----9--|
D|--4----4----4----4--|--6----6----6----6--|--11---11---11---11-|--9----9----9----9--|
A|--2----2----2----2--|--4----4----4----4--|--9----9----9----9--|--7----7----7----7--|
E|--------------------|--------------------|--------------------|--------------------|



(2:29)


Guitar 1:

    B    B    B    B     C#   C#   C#   C#    F#  		   F# F# F# F# F# F#

e|--2----2----2----2--|--4----4----4----4--|--9-----------------|--9--9--9--9--9--9--|
B|--4----4----4----4--|--6----6----6----6--|--11----------------|--11-11-11-11-11-11-|
G|--4----4----4----4--|--6----6----6----6--|--11----------------|--11-11-11-11-11-11-|
D|--4----4----4----4--|--6----6----6----6--|--11----------------|--11-11-11-11-11-11-|
A|--2----2----2----2--|--4----4----4----4--|--9-----------------|--9--9--9--9--9--9--|
E|--2----2----2----2--|--4----4----4----4--|--9-----------------|--9--9--9--9--9--9--|



    B    B    B    B     C#   C#   C#   C#    B    B    B    B     C#   C#   C#   C#     

e|--2----2----2----2--|--4----4----4----4--|--2----2----2----2--|--4----4----4----4--|
B|--4----4----4----4--|--6----6----6----6--|--4----4----4----4--|--6----6----6----6--|
G|--4----4----4----4--|--6----6----6----6--|--4----4----4----4--|--6----6----6----6--|
D|--4----4----4----4--|--6----6----6----6--|--4----4----4----4--|--6----6----6----6--|
A|--2----2----2----2--|--4----4----4----4--|--2----2----2----2--|--4----4----4----4--|
E|--2----2----2----2--|--4----4----4----4--|--2----2----2----2--|--4----4----4----4--|



    B  B  B  B  B  B     C# C# C# C# C# C#

e|--2--2--2--2--2--2--|--4--4--4--4--4--4--|
B|--4--4--4--4--4--4--|--6--6--6--6--6--6--|
G|--4--4--4--4--4--4--|--6--6--6--6--6--6--|
D|--4--4--4--4--4--4--|--6--6--6--6--6--6--|
A|--2--2--2--2--2--2--|--4--4--4--4--4--4--|
E|--2--2--2--2--2--2--|--4--4--4--4--4--4--|


Guitar 2:


e|--------------------|--------------------|--------------------|--------------------|
B|--------------------|--------------------|--------------------|--------------------|
G|--4----4----4----4--|--6----6----6----6--|--11----------------|--9--9--9--9--9--9--|
D|--4----4----4----4--|--6----6----6----6--|--11----------------|--9--9--9--9--9--9--|
A|--2----2----2----2--|--4----4----4----4--|--9-----------------|--7--7--7--7--7--7--|
E|--------------------|--------------------|--------------------|--------------------|


e|--------------------|--------------------|--------------------|--------------------|
B|--------------------|--------------------|--------------------|--------------------|
G|--4----4----4----4--|--6----6----6----6--|--4----4----4----4--|--6----6----6----6--|
D|--4----4----4----4--|--6----6----6----6--|--4----4----4----4--|--6----6----6----6--|
A|--2----2----2----2--|--4----4----4----4--|--2----2----2----2--|--4----4----4----4--|
E|--------------------|--------------------|--------------------|--------------------|


e|--------------------|--------------------|
B|--------------------|--------------------|
G|--4--4--4--4--4--4--|--6--6--6--6--6--6--|
D|--4--4--4--4--4--4--|--6--6--6--6--6--6--|
A|--2--2--2--2--2--2--|--4--4--4--4--4--4--|
E|--------------------|--------------------|



Outro:


(2:46)


Guitar 1:

e|-------14-----------|-------14-----------|-------14-----------|--------------------|
B|--------------------|--------------------|--------------------|--------------------|
G|--------------------|--------------------|--------------------|--------------------|
D|--------------------|--------------------|--------------------|--------------------|
A|--------------------|--------------------|--------------------|--------------------|
E|--------------------|--------------------|--------------------|--------------------|

e|--14---14---14---14-|--14----------------|
B|--------------------|--------------------|
G|--------------------|--------------------|
D|--------------------|--------------------|
A|--------------------|--------------------|
E|--------------------|--------------------|


Guitar 2: (Palm Muted)

e|--------------------|--------------------|--------------------|--------------------|
B|--------------------|--------------------|--------------------|--------------------|
G|--------------------|--5-5--5----5----5--|--4-4--4----4----4--|-----6-6--6-6--6-6--|
D|--4-4--4----4----4--|--5-5--5----5----5--|--4-4--4----4----4--|-----6-6--6-6--6-6--|
A|--4-4--4----4----4--|--3-3--3----3----3--|--2-2--2----2----2--|-----4-4--4-4--4-4--|
E|--2-2--2----2----2--|--------------------|--------------------|--------------------|


e|-----|
B|-----|
G|-----|
D|--2--|
A|--2--|
E|--0--|






LYRICS:


INTRO

You come in cold,
You're covered in blood.
They're all so happy you've arrived.
The doctor cuts your chord.
He hands you to your mom.
She sets you free into this life.

VERSE

And where do you go with no destination, no maps to guide you.
Wouldn't you know that it doesn't matter, we all end up the same.

CHORUS

These are the chronicles of life and death and everything between.
These are the stories of our lives, as fictional as they may seem.
You come in this world, and you go out just the same.
Today could be the best day of your life.

VERSE

And money talks in this world, 
Thats what idiots will say
But you'll find out that this world, 
Is just an idiots parade
Before you go, you've got some questions.
And you want answers
But now you're old, cold, covered in blood, 
right back to where you started from

CHORUS

These are the chronicles of life and death and everything between.
These are the stories of our lives, as fictional as they may seem.
You come in this world, and you go out just the same.
Today could be the worst day of your life. 



SOLO


INTERLUDE

But these are the chronicles of life and death and everything between.


CHORUS

These are the stories of our lives, as fictional as they may seem.
You come in this world, and you go out just the same.
Today could be the best day of, 
Today could be the worst day of,
Today could be the last day of your life.

OUTRO

It's your life, your life.
Comments