Good Charlotte - The Chronicles Of Life And Death Chords & Tabs

 

The Chronicles Of Life And Death Chords & Tabs

Good Charlotte Chords & Tabs

Version: 3 Type: Tab 0 ratings
1 star 2 stars 3 stars 4 stars 5 stars
comments

The Chronicles Of Life And Death Tab

----------------------------------------------------------------------------             
The Chronicles Of Life And Death - Good Charlotte
----------------------------------------------------------------------------
Tabbed by:Benjis_girl_64

I tabbed the acoustic version with alternate lyrics 
and now ive figured out the solo!

Tuning:Standard

e|-----------------|
B|-----------------|
G|-----------------|
D|---9--7----------|
A|--7-----10-------|
E|-----------------|

e|-----------------|
B|-----------------|
G|-----------------|
D|---7--5----------|
A|--5-----9--------|
E|-----------------|
                                    { X2
e|-----------------|
B|-----------------|
G|-----------------|
D|---5--4----------| 
A|--3-----7--------|
E|-----------------|
[ Tab from: http://www.guitartabs.cc/tabs/g/good_charlotte/the_chronicles_of_life_and_death_tab_ver_3.html ]
e|-----------------|
B|-----------------|
G|-----------------|
D|-----------------| 
A|--3----5---------|
E|-----------------|

^^^^^^Play Twice^^^^^^^

e|-----------------|
B|-----------------|
G|-----------------|
D|-----------------|
A|-7--10-9-10-9-7--|
E|-----------------|

e|-----------------|
B|-----------------|
G|-----------------|
D|-7-5-4-2-1-------|
A|-----------------|
E|-----------------|

e|-----------------|
B|-----------------|
G|-----------------|
D|---9--7----------|
A|--7-----10-------|
E|-----------------|

e|-----------------|
B|-----------------|
G|-----------------|
D|---7--5----------|
A|--5-----9--------|
E|-----------------|


e|------------------------|*
B|------------------------|
G|------------------------|
D|-9---11---13---14-------|
A|-9---11---13---14-------|
E|-7---9----11---12-------|
after these chords play chords for the chorus till the end!
                           
*not sure bout these chords but play as many time as needed.
Comments