Good Charlotte - The Anthem Chords & Tabs

 

The Anthem Chords & Tabs

Good Charlotte Chords & Tabs

Version: 9 Type: Tab 0 ratings
1 star 2 stars 3 stars 4 stars 5 stars
comments

The Anthem Tab

The Anthem  Good Charlotte

Intro
-------------------------
-------------------------
---66666-----------------
---66666-66666-44444-6--
---44444-66666-44444-6--
---------44444-22222-4--
pm   xxx   xxx   xxx                                               

Intro Part 2
--------------------------------------------------------
--------------------------------------------------------
--6-66-666----------------------------------------------
--6-66-666------6-66-6---------4-44--------6-66---------
--4-44-444-6-8--6-66-6-99-8-6--4-44-44-6-8-6-66-88-6-4--
----------------4-44-4---------2-22--------4-44---------

Verse                                                    
-----------------------------------------------
-----------------------------------------------
-666----------------------------666------------
-666--666-666--444--666-66-66---666--666-666---
-444--666-666--444--666-66-66---444--666-666---
------444-444--222--444-44-44--------444-444---
 xxx  xxx xxx  xxx  xxx xx xx   xxx  xxx xxx       

--------------------------
--------------------------
--------------------------
--------------6666--------
--------4444--------4444--
--2222--------------------

Verse
-----------------------------------------------
-----------------------------------------------
-666----------------------------666------------
-666--666-666--444--666-66-66---666--666-666---
-444--666-666--444--666-66-66---444--666-666---
------444-444--222--444-44-44--------444-444---
 xxx  xxx xxx  xxx  xxx xx xx   xxx  xxx xxx       
[ Tab from: http://www.guitartabs.cc/tabs/g/good_charlotte/the_anthem_tab_ver_9.html ]
--------------------------
--------------------------
--------------------------
--------------6666--------
--------4444--------4444--
--2222--------------------
                                              
Pre Chorus
-----------------------------------------------------------------------
-----------------------------------------------------------------------
-33333333----------6666666666666666-33333333---------------------------
-33333333-44444444-6666666666666666-33333333-44444444-6666666666666666-
-11111111-44444444-4444444444444444-11111111-44444444-6666666666666666-
----------22222222---------------------------22222224-4444444444444444-
                                                      |      pm       | 
Chorus
----------------------------------------------
----------------------------------------------
-6-----------6-----------6-----------6--------
-6-66-44-66--6-66-44-66--6-66-44-66--6-66-4---
-4-66-44-66--4-66-44-66--4-66-44-66--4-66-4---
---44-22-44----44-22-44----44-22-44----44-2---
   

Then Play:
Intro Part 2   
Verse
Pre Chorus
Chorus                  


Solo
----------------------------------------------------------------------------
----------------------------------------------------------------------------
----------------------------------------------------------------------------
----------------------------------------------------------------------------
-8-8-8-6-8-6--8-8-8-6-8-9-9-9-8-6-4--8-8-8-6-8-6-6h8-6-4--44-4-66-6-888-8h9-
----------------------------------------------------------------------------
                                                                       

-----------
-----------
-----------
-----------
-8h9-8-----
-----------
                                                                              
Bridge                                                      
---------------------------
---------------------------
---66666-------------------
---66666-66666-44444-6-----     x2
---44444-66666-44444-6------
---------44444-22222-4-----
Comments