Good Charlotte - The Anthem Chords & Tabs

 

The Anthem Chords & Tabs

Good Charlotte Chords & Tabs

Version: 6 Type: Tab 0 ratings
1 star 2 stars 3 stars 4 stars 5 stars
comments

The Anthem Tab

   
Tuning: 1/2 step down

This tab is 99% correct

Intro pt 1 - Guitar 1
eb-----x---x-----x---x-----x---x---------
Bb-----x---x-----x---x-----x---x---------
Gb-7-7-x---x-----x---x-7-7-x---x---------
Db-7-7-x-7-x-5-5-x-7-x-7-7-x-7-x-5-5-5-5-
Ab-5-5-x-7-x-5-5-x-7-x-5-5-x-7-x-5-5-5-5-
Eb-----x-5-x-3-3-x-5-x-----x-5-x-3-3-3-3-

Intro pt 2 - Guitar 1
eb-----------------------------------------------------
Bb-----------------------------------------------------
Gb-7---7-7---7-7-7---7---7---7-------------------------
Db-7---7-7---7-7-7---7---7---7-7---7-7---7-7-7---7--7--
Ab-5---5-5---5-5-5---5---5---5-7---7-7---7-7-7---7--7--
Eb-----------------------------5---5-5---5-5-5---5--5--

Intro pt 2 - Guitar 2
eb-----------------------------------------------------
Bb-----------------------------------------------------
Gb-----------------------------------------------------
Db-----------------------------------------5-5---------
Ab-5---5-5---5-5-5---7---9-----------------------------
Eb-----------------------------5---5-5---5-------9--7--

Intro pt 2 - Guitar 1 (continued)
eb------------------------------------------------------------
Bb------------------------------------------------------------
Gb------------------------------------------------------------
Db-7-5---5-5---5-5-5---5---5---5-7---7-7---7-7-7---5/7\5/7\5--
Ab-7-5---5-5---5-5-5---5---5---5-7---7-7---7-7-7---5/7\5/7\5--
Eb-5-3---3-3---3-3-3---3---3---3-5---5-5---5-5-5---3/5\3/5\3--

Intro pt 2 - Guitar 2 (continued)
eb--------------------------------------------------------------
Bb--------------------------------------------------------------
Gb--------------------------------------------------------------
Db--------------------------------------------------------------
Ab-------------------------------------------7-7-----5-4-5-9-5\-
Eb---3---3-3---5-4-4---5---7-----5---5-5---5--------------------

Verse - Guitar 1
Eb|---------------------------------------------------------|
Bb|---------------------------------------------------------|
Gb|-7-7-7--7-----------------7-7-7--7-----------------7-7-7-| this part is
Db|-7-7-7--7--7--7-7--7-7-7--7-7-7--7--5--5-5--5-5-5--7-7-7-|  palm muted
Ab|-5-5-5--5--7--7-7--7-7-7--5-5-5--5--5--5-5--5-5-5--5-5-5-|
Eb|-----------5--5-5--5-5-5------------3--3-3--3-3-3--------|
 
Verse – Guitar 1 (continued)
eb------------------------------------------------------------
Bb------------------------------------------------------------
Gb-7----------------------------------------------------------
Db-7--7-7-7-7--5--5--5--5--5--5--5--5--5--5--5--5--5--5--5--5-
Ab-5--7-7-7-7--5--5--5--5--5--5--5--5--5--5--5--5--5--5--5--5-
Eb----5-5-5-5--3--3--3--3--3--3--3--3--3--3--3--3--3--3--3--3-

Verse – Guitar 2
eb------------------------------------------------------------
Bb------------------------------------------------------------
Gb------------------------------------------------------------
Db-------------------------------------7--7--7--7-------------
Ab-------------------------5--5--5--5--------------5--5--5--5-
Eb-------------3--3--3--3-------------------------------------
[ Tab from: http://www.guitartabs.cc/tabs/g/good_charlotte/the_anthem_tab_ver_6.html ]
Bridge – Both Guitars            |     Guitar 1  
eb-------------------------------|--------------------
Bb-------------------------------|--------------------
Gb-4-------------7-------4-------|--------------------
Db-4-(x8)-5------7-(x16)-4-(x8)--|--7-----------------
Ab-2------5-(x8)-5-------2-------|--7-(16x palm muted)
Eb--------3----------------------|--5-----------------    

                                       Guitar 2
                                 |------------------------
                                 |------------------------
                                 |------------------------
                                 |---7-(8x palm muted)----
                                 |---7-(8x not palm muted)
                                 |---5--------------------

Chorus – Both Guitars
eb------------------------------------------------------------------------
Bb------------------------------------------------------------------------
Gb-7-----------------7---------------------7-----------------7------------
Db-7--7-7--5-5--7-7--7--7-7--5-5--8-8-7-7--7--7-7--5-5--7-7--7--7-7---5-5-
Ab-5--7-7--5-5--7-7--5--7-7--5-5--8-8-7-7--5--7-7--5-5--7-7--5--7-7---5-5-
Eb----5-5--3-3--5-5-----5-5--3-3--6-6-5-5-----5-5--3-3--5-5-----5-5---3-3-

add this to the end of the chorus before the bass wriff
eb-----------
Bb-----------
Gb-----------
Db--8-8-8-9--
Ab--8-8-8-9--
Eb--6-6-6-7—

Solo – Guitar 2
eb------------------------------------------------------------------
Bb------------------------------------------------------------------
Gb------------------------------------------------------------------
Db------------------------------------------------------------------
Ab-(7)/9--9--9--7--9--7--7--7--7------(7)/9--9--9--7--9--10--10--10-
Eb-------------------------------(10)-------------------------------

eb------------------------------------------------------------------
Bb------------------------------------------------------------------
Gb-----------------------------------------------7-7-9-9-9-11-11-11-
Db------------------------------------------------------------------
Ab-9--7------(7)/9--9--9--7--9--7--7--7--9--7--5-5-5-7-7-7--9--9--9-
Eb------(10)--------------------------------------------------------

eb---------------------
Bb---------------------     during solo, guitar 1 plays chorus with
Gb-11-11/12\11/12\11/--     a different strumming pattern
Db---------------------
Ab--9--9/10\-9/10\-9/--
Eb---------------------

After 1st  chorus things change: in the 1st  part of verse, guitar 1 doesn’t
                                 play the palm mute part and guitar 2 plays 
                                 some harmonic stuff.in the second part,
                                 guitar 1 plays the p.m. and guitar two
                                 plays this during it:
|              (palm muted)                                               |
Db---4---5-4-------------------4---5-4-------------------4---5-4-----------
Ab-5---5-----5---------------5---5-----5---------------5---5-----5---------
Eb-------------5--5-5--5-5-5-------------3--3-3--3-3-3---------------------

Listen to the song for the right timing

Feel free to make comments
Comments