Good Charlotte - The Anthem Chords & Tabs

 

The Anthem Chords & Tabs

Good Charlotte Chords & Tabs

Version: 3 Type: Tab 0 ratings
1 star 2 stars 3 stars 4 stars 5 stars
comments

The Anthem Tab

   
              feel free to talk to me 'bout it ~~>roze_angel@hotmail.com

Intro

E-------------------------------------------------------------------------
B-------------------------------------------------------------------------
G--6-x-x-6-x-x-7-7-9-11---------------12-12-11-9---------------6-6-7-9----
D--6-x-x-6-x-x------------6-x-x-6-x-x--------------4-x-x-4-x-x------------
A--4-x-x-4-x-x------------6-x-x-6-x-x--------------4-x-x-4-x-x------------
E-------------------------4-x-x-4-x-x--------------2-x-x-2-x-x------------

E-------------------------------------------------------------------------
B-------------------------------------------------------------------------
G--------------9-9-7-7-6-6-6----------------------------------------------
D--6-x-x-6-x-x------------------------------------------------------------
A--6-x-x-6-x-x------------------------------------------------------------
E--4-x-x-4-x-x------------------------------------------------------------


Verse(x2)~~>Palm mute

E-------------------------------------------------------------------------
B-------------------------------------------------------------------------
G--6-x-x-6-x-x-------------6-x-x-6-x-x--------------6-x-x-6-x-x-----------
D--6-x-x-6-x-x-6-x-6-x-6---6-x-x-6-x-x-4-x-4-x-4----6-x-x-6-x-x-----------
A--4-x-x-4-x-x-6-x-6-x-6---4-x-x-4-x-x-4-x-4-x-4----4-x-x-4-x-x-----------
E--------------4-x-4-x-4---------------2-x-2-x-2--------------------------

E----------------------------------------
B----------------------------------------
G----------------------------------------
D--6--------4----------------------------
A--6-(8x)---4-(16x)----------------------
E--4--------2----------------------------

 Pre-Chorus 

E-------------------------------------------------------------------------
B-------------------------------------------------------------------------
G-------------------------------------------------------------------------
D--8---------4--------11-------6--------8------4------6-------------------
A--8---------4--------11-------6--------8------4------6-------------------
E--6---------2--------9--------4--------6------2------4-------------------

Chorus

E-------------------------------------------------------------------------
B-------------------------------------------------------------------------
G---6-x-x-----------------6-x-x-------------------------------------------
D---6-x-x-6-x--4-4-6-6----6-x-x-6-x-4-4-7-7-7-----------------------------
A---4-x-x-6-x--4-4-6-6----4-x-x-6-x-4-4-7-7-7-----------------------------
E---------4-x--2-2-4-4----------4-x-2-2-5-5-5-----------------------------
[ Tab from: http://www.guitartabs.cc/tabs/g/good_charlotte/the_anthem_tab_ver_3.html ]
E-------------------------------------------------------------------------
B-------------------------------------------------------------------------
G---6-x-x-----------------6-x-x-------------------------------------------
D---6-x-x-6-x--4-4-6-6----6-x-x-6-x-4-------------------------------------
A---4-x-x-6-x--4-4-6-6----4-x-x-6-x-4-------------------------------------
E---------4-x--2-2-4-4----------4-x-2-------------------------------------

Breakdown 

E------------------------
B------------------------
G---6-6-6----------------
D---6-6-6-6---4-4-4-6---- 
A---4-4-4-6---4-4-4-6----
E---------4---2-2-2-4----               

Outro

E-----------------------
B-----------------------
G---6-x-x---------------
D---6-x-x-6-x--4-4-6-6--  
A---4-x-x-6-x--4-4-6-6--
E---------4-x--2-2-4-4--

E-----------------------
B-----------------------
G---6-x-x---------------
D---6-x-x-6-x--4-6-11---
A---4-x-x-6-x--4-6-11---
E---------4-x--2-4-9----
                           listen to the song and play.


Verse:

Its a new day but it all feels old
Its a good life thats what im told
But everything it all just feels the same
At my high school if felt more to me
Like a jail cell a penitentary
My time spent there it only made me see

Prechorus:

That I dont ever wanna be like you
I dont wanna do the things you do
Im never gonna hear the words you say
Cause I dont ever wanna
I dont wanna ever be

Chorus:

You.....
Dont wanna be just like you
What im sayin is this is the Anthem
Throw all your hands up
You.Dont wanna be you

Verse:

Go to college
A university
Get a real job
Thats what they said to me
But i could never live the way they want
Im gonna get by a just do my time
Out of step while they all get in line
Im just a minor threat so pay no mind

Prechorus:

Do you really wanna be like them
Do you really wanna be another trend
Do you wanna be part of that crowd
Cause I dont ever wanna
I dont ever wanna be

Chorus:

You.....
Dont wanna be just like you
What im sayin is this is the Anthem
Throw all your hands up
You.Dont wanna be you

Breakdown:

Shake it once thats fine
Shake it twice thats ok 
Shake it three times your playin with yourself again

Prechorus:

You... dont wanna be just like you 
What im sayin' is 

Chorus:

This is the anthem
Throw all your hands up 
Ya'll got to feel me 
Sing if your with me 
You... dont wanna be just like you 
What im sayin is this is the anthem 
Throw all your hands up 
Ya'll got to feel me 
Sing if your with me 

Your with me 
Another loser anthem
Whoa, 
Another loser anthem, 
Whoa, 
Another loser anthem, 
Whoa, 
Another loser anthem


=^_^=
feel free to talk to me 'bout it ~~>roze_angel@hotmail.com
                                                 -sleepwalker-
Comments