Good Charlotte - The Anthem Chords & Tabs

 

The Anthem Chords & Tabs

Good Charlotte Chords & Tabs

Version: 13 Type: Tab 0 ratings
1 star 2 stars 3 stars 4 stars 5 stars
comments

The Anthem Tab

Artist: Good Charlotte
Album: The Young and The Hopeless
Song: The Anthem
Tuning: E Standard
Tablature by: Johan Arif (johan_arif@msn.com)

PM= palm mute
/ = slide up
\ = slide down
~ = vibrato

Intro
e|-----------------------------------------------------------------------------|
B|-----------------------------------------------------------------------------|
G|--77------------77-----------------------------------------------------------|
D|--77-77-555-77--77-77-55~----------------------------------------------------|
A|--55-77-553-77--55-77-55~----------------------------------------------------|
E|-----55-333-55-----55-33~----------------------------------------------------|

Intro2
e|----------------------------------------------------------------------------------|
B|----------------------------------------------------------------------------------|
G|--7-77--999-11-12--------12-12-12-11-9-----------------------12-12-12-11-9-9-9-9--|
D|--7-77--777-9--10--7-77--10-10-10-9--7--5-55-888-9-11--7-77--10-10-10-9--7-7-7-7--|
A|--5-55-------------7-77-----------------5-55-666-7-9---7-77-----------------------|
E|-------------------5-55-----------------3-33-----------5-55-----------------------|


e|-----------------------------------------------------------------------------|
B|-----------------------------------------------------------------------------|
G|--------9-9-9-9-11-11-11-11-12-12-12-12-11-11-11-11--------------------------|
D|---7-7--7-7-7-7-9--9--9--9--10-10-10-10-9--9--9--9---------------------------|
A|---7-7-----------------------------------------------------------------------|
E|---5-5-----------------------------------------------------------------------|

e|-----------------------------------------------------------------------------|
B|-----------------------------------------------------------------------------|
G|--------9-9-9-9-11-11-11-11-12-12-12-12-11-11-11-11--------------------------|
D|---7-7--7-7-7-7-9--9--9--9--10-10-10-10-9--9--9--9---------------------------|
A|---7-7-----------------------------------------------------------------------|
E|---5-5-----------------------------------------------------------------------|

Verse*Bass Plays*


Chorus
e|-----------------------------------------------------------------------------|
B|-----------------------------------------------------------------------------|
G|--77777777-----------------------------77777777------------------------------|
D|--77777777-77777777-55555555-77777777--77777777-77777777-5555555555----------|
A|--55555555-77777777-55555555-77777777--55555555-77777777-5555555555----------|
E|-----------55555555-33333333-55555555-----------55555555-3333333333----------|
PM							   ..........	

e|-----------------------------------------------------------------------------|
B|-----------------------------------------------------------------------------|
G|-7-----------7-------------7-----------7-------------------------------------|
D|-7-77-55-77--7-77-55-7777--7-77-55-77--7-77-55-------------------------------|
A|-5-77-55-77--5-77-55-7777--5-77-55-77--5-77-55-------------------------------|
E|---55-33-55----55-33-5555----55-33-55----55-33-------------------------------|

pre-Verse
e|----------------------------------------------------------------------------------------|
B|----------------------------------------------------------------------------------------|
G|--7-77--999-11-12--------12-12-12-11-9-----------------------12-12-11-11-11-11-9-9-9-9--|
D|--7-77--777-9--10--7-77--10-10-10-9--7--5-55-888-9-11--7-77--10-10-9--9--9--9--7-7-7-7--|
A|--5-55-------------7-77-----------------5-55-666-7-9---7-77-----------------------------|
E|-------------------5-55-----------------3-33-----------5-55-----------------------------|
[ Tab from: http://www.guitartabs.cc/tabs/g/good_charlotte/the_anthem_tab_ver_13.html ]
e|-----------------------------------------------------------------------------|
B|-----------------------------------------------------------------------------|
G|--------9-9-9-9-11-11-11-11-12-12-12-12-11-11-11-11--------------------------|
D|---7-7--7-7-7-7-9--9--9--9--10-10-10-10-9--9--9--9---------------------------|
A|---7-7-----------------------------------------------------------------------|
E|---5-5-----------------------------------------------------------------------|


e|-----------------------------------------------------------------------------|
B|-----------------------------------------------------------------------------|
G|--------9-9-9-9-11-11-11-11-12-12-12-12-11-11-11-11--------------------------|
D|---7-7--7-7-7-7-9--9--9--9--10-10-10-10-9--9--9--9---------------------------|
A|---7-7-----------------------------------------------------------------------|
E|---5-5-----------------------------------------------------------------------|

Chorus
e|-----------------------------------------------------------------------------|
B|-----------------------------------------------------------------------------|
G|--77777777-----------------------------77777777------------------------------|
D|--77777777-77777777-55555555-77777777--77777777-77777777-5555555555----------|
A|--55555555-77777777-55555555-77777777--55555555-77777777-5555555555----------|
E|-----------55555555-33333333-55555555-----------55555555-3333333333----------|
PM							   ..........	

Bridge
e|-----------------------------------------------------------------------------|
B|-----------------------------------------------------------------------------|
G|-7-----------7-------------7-----------7-------------------------------------|
D|-7-77-55-77--7-77-55-7777--7-77-55-77--7-77-55-7777--------------------------|
A|-5-77-55-77--5-77-55-7777--5-77-55-77--5-77-55-7777--------------------------|
E|---55-33-55----55-33-5555----55-33-55----55-33-5555--------------------------|

e|-----------------------------------------------------------------------------|
B|-----------------------------------------------------------------------------|
G|--777-777--------------------------777-777-----------------------------------| 
D|--777-777-777-777-555-555-777-777--777-777-777-777-555-555-------------------|      
A|--555-555-777-777-555-555-777-777--555-555-777-777-555-555-------------------|
E|----------555-555-333-333-555-555----------555-555-333-333-------------------|
PM..........................................................

Solo
e|-------------------------------------------------------------------------------------------------------|
B|-------------------------------------------------------------------------------------------------------|
G|-------------------------------------------------------------------------------------------------------|
D|-------------------------------------------------------------------------------------------------------|
A|-5/9-9-9-7-9-7-7-7-9-7--5/9-9-9-7-9-10-9-10-9-7--5/9-9-9-7-9-7-7-7-9-7-5--55-777-999-9-9-10-9-10-9~----|
E|-------------------------------------------------------------------------------------------------------|

Ending Chorus
e|-----------------------------------------------------------------------------|
B|-----------------------------------------------------------------------------|
G|--77------------77-------------77------------77------------------------------| 
D|--77-77-555-77--77-77-55-5555--77-77-555-77--77-77-55------------------------|      
A|--55-77-555-77--55-77-55-5555--55-77-555-77--55-77-55------------------------|
E|-----55-333-55-----55-33-3333-----55-333-55-----55-33------------------------|


e|-----------------------------------------------------------------------------|
B|-----------------------------------------------------------------------------|
G|-77-----------77-----------77-----------77----------77-----------77----------| 
D|-77-77-55-77--77-77-55-77--77-77-55-77--77-77-55-7--77-77-55-77--77-77-55-77-|      
A|-55-77-55-77--55-77-55-77--55-77-55-77--55-77-55-7--55-77-55-77--55-77-55-77-|
E|----55-33-55-----55-33-55-----55-33-55-----55-33-5-----55-33-55-----55-33-55-|

Outro
e|-----------------------------------------------------------------------------|
B|-----------------------------------------------------------------------------|
G|-7-----------7-----------7-----------7---------7-----------------------------|
D|-7-77-55-77--7-77-55-77--7-77-55-77--7-77-55-7-7-----------------------------|
A|-5-77-55-77--5-77-55-77--5-77-55-77--5-77-55-7-5-----------------------------|
E|---55-33-55----55-33-55----55-33-55----55-33-5-------------------------------|
Comments