Good Charlotte - The Anthem Chords & Tabs

 

The Anthem Chords & Tabs

Good Charlotte Chords & Tabs

Version: 12 Type: Tab 0 ratings
1 star 2 stars 3 stars 4 stars 5 stars
comments

The Anthem Tab

Song:The Anthem 
Artist:Good Charlotte
Album:The Young and the Hopeless
Year:2000
Tablature By: Nobstaa
Tuning:E Standard
Email:nobster_4@hotmail.com

*:palm mute
/:slide
>:hold note (for each symbol hold note one second)
x:finger mute
~:rest (for each symbol rest one second)
^:strum hard

Intro: Use High Reverb

e----------------------------------------------------
B----------------------------------------------------
G----------------------------------------------------
D---66-xx-x-xx-xx-xx-66-xx-x-xxx---------------------
A---44-xx-6-44-66-xx-44-xx-6-644---------------------
E---xx-xx-4-22-44-xx-xx-xx-4-422---------------------


Prelude:

e-------------------------------------------------------------------------
B-------------------------------------------------------------------------
G-------------------------------------------------------------------------
D---6-66----------xx-xx-x----------xx-xx-x----------66-66-6---------------
A---4-44-444-6-8--66-66-6-999-8-6--44-44-4-333-4-6--44-44-4-66-55-44------
E---x-xx----------44-44-4----------22-22-2----------xx-xx-x---------------


Verse: Play Softly

e------------------------------------------------------------------------
B------------------------------------------------------------------------
G------------------------------------------------------------------------
D---666-66-x-xx-xxx--666-66-x-xx-xxx--666-66-x-xx-x-xx-x>>>>-------------
A---444-44-6-66-666--444-44-4-44-444--444-44-6-66-6-66-4>>>>--2-3-5>>>---
E---xxx-xx-4-44-444--xxx-xx-2-22-222--xxx-xx-4-44-4-44-2>>>>-------------
                                             ^ ** ^ ** ^

Guitar #2

Bridge:

e------------------------------------------------------------------------
B------------------------------------------------------------------------
G------------------------------------------------------------------------
D---xxxxxxxx-xxxxxxxx-66666666---xxxxxxxx-xxxxxxxx-xxxxxxxx--------------
A---88888888-44444444-44444444---88888888-44444444-66666666--------------
E---66666666-22222222-xxxxxxxx---66666666-22222222-44444444--------------



Chorus:

e--------------------------------------------------
B--------------------------------------------------
G--------------------------------------------------
D---66-xx-x-xx-xx-x-66-x-x-xxx---------------------
A---44-xx-6-44-66-x-44-x-6-644---------------------
E---xx-xx-4-22-44-x-xx-x-4-422---------------------


Prelude:

e-------------------------------------------------------------------------
B-------------------------------------------------------------------------
G-------------------------------------------------------------------------
D---6-66----------xx-xx-x----------xx-xx-x----------66-66-6---------------
A---4-44-444-6-8--66-66-6-999-8-6--44-44-4-333-4-6--44-44-4-66-55-44------
E---x-xx----------44-44-4----------22-22-2----------xx-xx-x---------------



Verse: Play Softly

e------------------------------------------------------------------------
B------------------------------------------------------------------------
G------------------------------------------------------------------------
D---666-66-x-xx-xxx--666-66-x-xx-xxx--666-66-x-xx-x-xx-x>>>>-------------
A---444-44-6-66-666--444-44-4-44-444--444-44-6-66-6-66-4>>>>--2-3-5>>>---
E---xxx-xx-4-44-444--xxx-xx-2-22-222--xxx-xx-4-44-4-44-2>>>>-------------
		                             ^ ** ^ ** ^
							
Guitar #2


Bridge:

e------------------------------------------------------------------------
B------------------------------------------------------------------------
G------------------------------------------------------------------------
D---xxxxxxxx-xxxxxxxx-66666666---xxxxxxxx-xxxxxxxx-xxxxxxxx--------------
A---88888888-44444444-44444444---88888888-44444444-66666666--------------
E---66666666-22222222-xxxxxxxx---66666666-22222222-44444444--------------


Chorus:
[ Tab from: http://www.guitartabs.cc/tabs/g/good_charlotte/the_anthem_tab_ver_12.html ]
e----------------------------------------------------
B----------------------------------------------------
G----------------------------------------------------
D---66-xx-x-xx-xx-xx-66-xx-x-xxx---------------------
A---44-xx-6-44-66-xx-44-xx-6-644---------------------
E---xx-xx-4-22-44-xx-xx-xx-4-422---------------------


"Shake it once thats fine, shake it twice thats ok..."
This is a Bass Riff.


Solo:

e-------------------------------------------------------------------------
B-------------------------------------------------------------------------
G-------------------------------------------------------------------------
D-------------------------------------------------------------------------
A---8-8888-6-666-66-8-8888-9-99-9999-9-8-6---8-8888-6-66-8-6--------------
E-------------------------------------------------------------------------

e-------------------------------------------------------------------------
B-------------------------------------------------------------------------
G-------------------------------------------------------------------------
D-------------------------------------------------------------------------
A---44-4-66-6-88-8-9-8-9-8/4>>--------------------------------------------
E-------------------------------------------------------------------------


There is a light pause in the music and singer #2 says:
"You...Dont wanna be just like you..."

e----------------------------------------------------
B----------------------------------------------------
G----------------------------------------------------
D---66-xx-x-xx-xx-xx-66-xx-x-xxx---------------------
A---44-xx-6-44-66-xx-44-xx-6-644---------------------
E---xx-xx-4-22-44-xx-xx-xx-4-422--------------------- Play this cleanly



After the pause the music kicks in again and the lead singer says:
"This is the anthem, throw all your hands up..."

 
e----------------------------------------------------
B----------------------------------------------------
G----------------------------------------------------
D---66-xx-x-xx-xx-xx-66-xx-x-xxx---------------------
A---44-xx-6-44-66-xx-44-xx-6-644---------------------
E---xx-xx-4-22-44-xx-xx-xx-4-422--------------------- Distortion, High Bass 


Concluding the song, the lead singer says:
"Another loser anthem, woah...another loser anthem, woah..."

e-------------------------------------------------------------------------
B-------------------------------------------------------------------------
G-------------------------------------------------------------------------
D---6-xx-xx-xx--6-xx-xx-xx--6-xx-xx-xx--6-xx-xx-x-6>>---------------------
A---4-66-44-66--4-66-44-66--4-66-44-66--4-66-44-6-4>>---------------------
E---x-44-22-44--x-44-22-44--x-44-22-44--x-44-22-4-x>>---------------------



Lyrics:

Its a new day, but it all feels old
Its a good life, thats what I'm told
But everything it all just feels the same
At my highschool, it felt more to me
Like a jail cell, a penatentory
But time spent there it only makes me see

That I dont ever wanna be like you
I dont wanna do the things you do
I'm never gunna hear the words you say
And I dont ever wanna, I dont ever wanna be

You, dont wanna be just like you
What I'm sayin is 
This is the anthem throw all your hands up
You, dont wanna be you

Go to college, or university
Get a real job, thats what they said to me
But I could never life the way they want
I'd rather get by, and just do my time
Out of step while, they all get in line
I'm just a minor, please dont pay no mind

Do you realy wanna be like them
Do you realy wanna be another trend
Do you wanna be part of the croud
Cuz I dont ever wanna
I dont realy wanna be 

You, dont wanna be just like you
What I'm sayin is 
This is the anthem throw all your hands up
You, dont wanna be you

Shake it once thats fine
Shake it twice thats ok
Shake it three times, your playin with your self again

You, dont wanna be just like you
What I'm sayin is
This is the anthem
Throw all your hands up
Dont have to feel me
Sing if your with me
You, dont wanna be just like you

Another loser anthem, woah
Another loser anthem, woah
Another loser anthem, woah
Another loser anthem
Comments