Good Charlotte - The Anthem Chords & Tabs

 

The Anthem Chords & Tabs

Good Charlotte Chords & Tabs

Version: 1 Type: Bass Tab 0 ratings
1 star 2 stars 3 stars 4 stars 5 stars
comments

The Anthem Bass Tab

   
--------------------------------------------------------------------------------
                          The Anthem - Good charloote
--------------------------------------------------------------------------------
Artist: Good Charlotte
Album: Young And The Hopeless
Song: The Anthem(written by Benji and Joel)
Tunning: for a 5 string bass :Standard: BEADG
Tunning: for a 4 string bass :Dropped D Tunning, Low to high DADG
Tabbed by : Zero is great man

The Bass Player in this band plays with a 5 string bass, Which I find
unnessesary cause you can always down tune the e string to a d, But for
the sake of being accurate, and practical, I posted the song for both
a 5 and a 4 string bass.

[5 String Bass]

Intro part 1:
G|---------------------------------------------------------------|
D|---------------------------------------------------------------|
A|-5-5-5-5-5-5-5-5-5-5-------------------------------------------|
D|----------------------5-5-5-5-5-5-5-5-5-5--3-3-3-3-3-3-3-3-3-3-|
B|---------------------------------------------------------------|

Intro part 2:
G|---------------------------|
D|---------------------------|
A|---------------------------|
E|-5-5-5-5-5-5-5-5-5-5-5-5-5-|
B|---------------------------|

Verse:"It's a new day, but it feels old to me." 
G|-------------------------------------------------------------------|
D|-------------------------------------------------------------------|
A|-------------------5-5-5-5-----------------------------------------|
E|----------5-5-5-5-----------3-3-3-3-3-3-3----------5-(x8)--3-(x16)-|
B|-3-3-3-3----------------------------------3-3-3-3------------------|
 
Pre-Chorus:"I don't really...,"
G|-------------------------------------------------|
D|-------------------------------------------------|
A|-2-(8x)----------5-(16x)--2-(8x)-----------------|
E|---------3-(8x)------------------3-(8x)--5-(16x)-|
B|-------------------------------------------------|

Chorus: "You, don't want to be just like you"
G|----------------------------------------------------------------------------|
D|----------------------------------------------------------------------------|
A|--------------------5-5------------------------------------------5-5--------|
E|------5-5--3-3-5-5-------5-5--3-3--6-6--5-5-------5-5--3-3--5-5-------5-5-3-|
B|-3-3-----------------------------------------3-3----------------------------|

Interlude: "shake it once that's fine.."
G|--------------------------------------------|
D|-------------------------------4-4-4-4------|
A|---------------------5-5----------------5-5-|
E|------5-5--3-3--5-5-------5-5---------------|
B|-3-3----------------------------------------|
[ Tab from: http://www.guitartabs.cc/tabs/g/good_charlotte/the_anthem_btab.html ]
Solo:(During solo, Bass plays chorus).

Bridge: 
"This is the Anthem!..."
G|-----------------|     G|--------------------|
D|-----------------|(x2) D|--------------------|(x3)
A|-5-5-5-----------|     A|--------------------|
E|-------5-3-3-3-5-|     E|------5-5--3-3--5-5-|
B|-----------------|     B|-3-3----------------|    

Outro:(end with this)
G|------------------|
D|------------------|
A|-5-5-5----------5-|
E|-------3-5--3-5---|
B|------------------|
--------------------------------------------------------------------------------
[4-String Bass]
Intro part 1:
G|---------------------------------------------------------------|
D|---------------------------------------------------------------|
A|-5-5-5-5-5-5-5-5-5-5-------------------------------------------|
D|----------------------7-7-7-7-7-7-7-7-7-7--5-5-5-5-5-5-5-5-5-5-|

Intro part 2:
G|---------------------------|
D|---------------------------|
A|---------------------------|
D|-7-7-7-7-7-7-7-7-7-7-7-7-7-|

Verse:"It's a new day, but it feels old to me." 
G|-------------------------------------------------------------------|
D|-------------------------------------------------------------------|
A|-------------------5-5-5-5-----------------------------------------|
D|-0-0-0-0--7-7-7-7-----------5-5-5-5-5-5-5-0-0-0-0--7-(x8)--5-(x16)-|
 
Pre-Chorus:"I don't really...,"
G|-------------------------------------------------|
D|-------------------------------------------------|
A|-2-(8x)----------5-(16x)--2-(8x)-----------------|
D|---------5-(8x)------------------5-(8x)--7-(16x)-|

Chorus: "You, don't want to be just like you"
G|----------------------------------------------------------------------------|
D|----------------------------------------------------------------------------|
A|--------------------5-5------------------------------------------5-5--------|
D|-0-0--7-7--5-5-7-7-------7-7--5-5--8-8--7-7--0-0--7-7--5-5--7-7-------7-7-5-|

Interlude: "shake it once that's fine.."
G|--------------------------------------------|
D|-------------------------------4-4-4-4------|
A|---------------------5-5----------------5-5-|
D|-0-0--7-7--5-5--7-7-------7-7---------------|

Solo:(During solo, Bass plays chorus).

Bridge: 
"This is the Anthem!..."
G|-----------------|     G|--------------------|
D|-----------------|(x2) D|--------------------|(x3)
A|-5-5-5-----------|     A|--------------------|
D|-------7-5-5-5-7-|     D|-0-0--7-7--5-5--7-7-|         

Outro:(end with this)
G|------------------|
D|------------------|
A|-5-5-5----------5-|
D|-------7-7--5-7---|

Well that's it, feel free to comment of correct. peace out.
===============================================================================
Comments