Good Charlotte - Thank You Mom Chords & Tabs

 

Thank You Mom Chords & Tabs

Good Charlotte Chords & Tabs

Version: 2 Type: Tab 0 ratings
1 star 2 stars 3 stars 4 stars 5 stars
comments

Thank You Mom Tab

verse
------------------------------------------------------------|
3-3-3-3-3-3----3-3-3-3-3-3----3-3-3-3-3-3----3-3-3-3-3-3----|
2-2-2-2-2-2----0-0-0-0-0-0----0-0-0-0-0-0----2-2-2-2-2-2----|
2-2-2-2-2-2----2-2-2-2-2-2----0-0-0-0-0-0----0-0-0-0-0-0----|   4x
0-0-0-0-0-0----3-3-3-3-3-3----2-2-2-2-2-2----0-0-0-0-0-0----|
------------------------------3-3-3-3-3-3----2-2-2-2-2-2----|


chorus
[ Tab from: http://www.guitartabs.cc/tabs/g/good_charlotte/thank_you_mom_tab_ver_2.html ]
-----------------------------------------------------------|
3-3-3-3-3-3----3-3-3-3-3-3----3-3-3-3-3-3----3-3-3-3-3-3---|
0-0-0-0-0-0----2-2-2-2-2-2----0-0-0-0-0-0----0-0-0-0-0-0---|
2-2-2-2-2-2----2-2-2-2-2-2----2-2-2-2-2-2----0-0-0-0-0-0---|  4x
2-2-2-2-2-2----0-0-0-0-0-0----3-3-3-3-3-3----2-2-2-2-2-2---|
---------------------------------------------3-3-3-3-3-3---|

at the end of each chorus

1-1-1-1-1-1-1-1-1-1-1-1-1-1-1-1-1-|
2-2-2-2-2-2-2-2-2-2-2-2-2-2-2-2-2-|
1-1-1-1-1-1-1-1-1-1-1-1-1-1-1-1-1-|
3-3-3-3-3-3-3-3-3-3-3-3-3-3-3-3-3-|
3-3-3-3-3-3-3-3-3-3-3-3-3-3-3-3-3-|
1-1-1-1-1-1-1-1-1-1-1-1-1-1-1-1-1-|

figure out the order yourself its pretty easy...
from www.taborama.com
Comments