Good Charlotte - Thank You Mom Chords & Tabs

 

Thank You Mom Chords & Tabs

Good Charlotte Chords & Tabs

Version: 1 Type: Chords 0 ratings
1 star 2 stars 3 stars 4 stars 5 stars
comments

Thank You Mom Chords

Thank You Mom - Good Charlotte
By:Andrew Mcshan(Guitarguyx182@aol.com)
[ Tab from: http://www.guitartabs.cc/tabs/g/good_charlotte/thank_you_mom_crd.html ]
Verse
e|-3-----3------3-----3------------------|
B|-3-----3------3-----3------------------|
G|-2-----0------0-----2------------------|
D|-2-----2------0-----0------------------|
A|-0-----3------2-----0------------------|
E|-0-----0------3-----2------------------|
Always Always and Forever
I'm sitting here, I'm thinking back to a time when I was young, 
My memory is clear as day, I'm listening to the dishes clink, 
You were downstairs, you would sing songs of praise, 
And all the times we laughed with you, 
And all the times that you stayed true to us, 
Chorus
e|-0-----3------3-----3------3-3-3-------|
B|-0-----3------3-----3------3-3-3-------|
G|-0-----2------0-----0------0-0-0-------|
D|-2-----2------2-----0--x2--2-2-3-------|
A|-2-----0------3-----2------3-3-3-------|
E|-0-----0------0-----3------------------|
Now we say, I said, I thank you, 
I'll always thank you, More than you could know, 
Than I could ever show, And I love you, I'll always love you, 
Verse
e|-3-----3------3-----3------------------|
B|-3-----3------3-----3------------------|
G|-2-----0------0-----2------------------|
D|-2-----2------0-----0------------------|
A|-0-----3------2-----0------------------|
E|-0-----0------3-----2------------------|
There's nothing I won't do to say these words to you, 
That you're beautiful forever, you were my mom, you were my dad, 
The only thing I ever had was you, It's true, 
And even when the times got hard you were there, 
To let us know that we'd get through, you showed me how to be a man, 
You taught me how to understand the things people do, 
You showed me how to love my God, You taught me that not everyone knows the truth, 
Chorus
e|-0-----3------3-----3------3-3-3-------|
B|-0-----3------3-----3------3-3-3-------|
G|-0-----2------0-----0------0-0-0-------|
D|-2-----2------2-----0--x2--2-2-3-------|
A|-2-----0------3-----2------3-3-3-------|
E|-0-----0------0-----3------------------|

And I thank you, I'll always thank you, 
More than you could know, Than I could ever show, 
And I love you, I'll always love you, There's nothing I won't do to say these words to you, 
That you will live forever, always

Bridge
e|-3-----3------3-----3------------------|
B|-3-----3------3-----3------------------|
G|-2-----0------0-----2------------------|
D|-2-----2------0-----0------------------|
A|-0-----3------2-----0------------------|
E|-0-----0------3-----2------------------|

Chorus
Comments