Good Charlotte - Superman Cant Walk Chords & Tabs

 

Superman Cant Walk Chords & Tabs

Good Charlotte Chords & Tabs

Version: 1 Type: Bass Tab

Superman Cant Walk Bass Tab

----------------------------------------------------------------------------
                       SUPERMAN CAN'T WALK - Good Charlotte
----------------------------------------------------------------------------

Tabbed By: BCD_Bryce_BCD
E-mail: crazyoilerfan@hotmail.com

Tuning: Standard (low to high) EADG

This is a great song, that not to many people have heard. The bass is fairly easy,
but has a nice sound to it. The intro starts with just guitar but bass comes in a
bit later.

Intro

G|-----------------------------------------------------------------------|
D|-------------------7-------------------7-------------------7-----------|
A|---44-55-7-------------44-55-7-------------44-55-7-------------44-55-7-|
E|-------------5-5-----------------5-5-----------------5-5---------------|

G|----------------------|
D|---------7------------|
A|-------------44-55-7--|
E|---5-5----------------|

Verse

G|-------------------------------------------|
D|----------7-------------------7------------|
A|--------------44-55-7-------------44-55-7--|x4
E|----5-5----------------5-5----------------|

Chorus

G|-----------------------------------------------------------------------|
D|-----------------------------------------------------------------------|
A|---5-5---7-77-----------5-5---7-77-----------5-5---7-77-----------5-5--|
E|----------------55-55----------------55-55----------------55-55--------|

G|--------------|
D|--------------|
A|---7-77-------|
E|----------5---|

Verse
[ Tab from: http://www.guitartabs.cc/tabs/g/good_charlotte/superman_cant_walk_btab.html ]
G|-------------------------------------------|
D|---------7-------------------7-------------|
A|-------------44-55-7-------------44-55-7---|x6
E|---5-5-----------------5-5-----------------|

Chorus

G|-----------------------------------------------------------------------|
D|-----------------------------------------------------------------------|
A|---5-5---7-77-----------5-5---7-77-----------5-5---7-77-----------5-5--|
E|----------------55-55----------------55-55----------------55-55--------|

G|--------------|
D|--------------|
A|---7-77-------|
E|----------5---|

Bridge


G|-----------------------------------------------------------------------|
D|-----------------------------------------------------------------------|
A|---------5-555------------------5-555------------------5-555-----------|
E|---2-2----------5-55554---2-2----------5-55554---2-2----------5-55554--|


G|---------------------|
D|---------------------|
A|---------5-555-------|
E|---2-2-----------5---|

Verse

G|-------------------------------------------|
D|---------7-------------------7-------------|
A|-------------44-55-7-------------44-55-7---|
E|---5-5-----------------5-5-----------------|

Chorus

G|-----------------------------------------------------------------------|
D|-----------------------------------------------------------------------|
A|---5-5---7-77-----------5-5---7-77-----------5-5---7-77-----------5-5--|
E|----------------55-55----------------55-55----------------55-55--------|

G|------------------|
D|------------------|
A|---7-77-----------|
E|----------55-55---|

E-mail me if yuou have any comments. Thanks.