Good Charlotte - Story Of My Old Man Chords & Tabs

 

Story Of My Old Man Chords & Tabs

Good Charlotte Chords & Tabs

Version: 1 Type: Tab 0 ratings
1 star 2 stars 3 stars 4 stars 5 stars
comments

Story Of My Old Man Tab

   
Good Charlotte - Story Of My Old Man
Tabbed By: shaun
EMail: enamoredbyyou@cs.com

Tuning: Half Step Down (Eb Ab Db Gb Bb Eb)

x =dead string, don't play


Intro
Eb|-------||
Bb|-------||
Gb|---4---||
Db|---x---||26x
Ab|---2---||
Eb|-------||

Verse
Eb|-------------------------||---------------------------||
Bb|-------------------------||---------------------------||
Gb|--44444444---------------||-44444444------------------||
Db|--44444444-2222-4444-----||-44444444-4444-6666--------||
Ab|--22222222-2222-4444-----||-22222222-4444-6666--------||
Eb|-----------0000-2222-----||----------2222-4444--------||
  [----------play 3x--------][-----play the 4th time-----]
[ Tab from: http://www.guitartabs.cc/tabs/g/good_charlotte/story_of_my_old_man_tab.html ]
Chorus
Eb|------------------------------||
Bb|------------------------------||
Gb|--88888888-66666666-44444444--||
Db|--xxxxxxxx-xxxxxxxx-xxxxxxxx--||
Ab|--66666666-44444444-22222222--||4x
Eb|------------------------------||

Post Chorus/bridge thing
Eb|-------||
Bb|-------||
Gb|----7~-||
Db|---7---||
Ab|--5----||listen to cd for amount of times to play
Eb|-------||

Intro
Verse
Chorus
Post Chorus
Chorus(no lyrics)

2nd Chorus
Eb|----------------------||
Bb|----------------------||
Gb|--44444---------------||
Db|--44444-66666-22222---||
Ab|--22222-66666-22222---||4x
Eb|--------44444-00000---||

Don't know how accurate this is sounds pretty close, if theres any corrections
or comments email enamoredbyyou@cs.com, thanks.
Comments