Good Charlotte - Sos Chords & Tabs

 

Sos Chords & Tabs

Good Charlotte Chords & Tabs

Version: 5 Type: Tab 0 ratings
1 star 2 stars 3 stars 4 stars 5 stars
comments

Sos Tab

   
 S.O.S

Tuning, 1/2 Step down ( eb,Bb,Gb,Db,Ab,eb )



Intro x4
                                              
eb|--0---0--0---1-1-1----0----0----0----0----0-------0-| 
Bb|--1---1--1---1-1-1----1----1----1----1----1-------1-| 
Gb|--2---2--2---2-2-2----0----0----0----0----0-------2-| 
Db|--2---2--2---3-3-3----2----2----2----2----2-------2-| 
Ab|--0---0--0---3-3-3----3----3----3----3----3-------0-| 
Eb|-------------1-1-1----------------------------------|


Verse Gt 1: x2


eb|--------------------------------------|
Bb|--------------------------------------|
Gb|--------------------------------------|
Db|-33333333-33333333--55555555-55555555-|
Ab|-33333333-33333333--55555555-55555555-|
Eb|-11111111-11111111--33333333-33333333-|
PM  ........ ........  ........ .......  


eb|---------------------------------------------|
Bb|---------------------------------------------|
Gb|---------------------------------------------|
Db|-77777777-77777777-1010101010101010-99999999-|
Ab|-77777777-77777777-1010101010101010-99999999-|
Eb|-55555555-55555555-8-8-8-8-8-8-8-8--77777777-|
PM  ........ ........ . . . . . . . .  ........


Verse Gt 2:  x2
                                                                 

eb|----------------------------------| 
Bb|----------------------------------| 
Gb|----------------------------------|
Db|-----------3--------------3-------|
Ab|-------3-----3--------3-----3-----|
Eb|--1--1---1-----1-1--1---1-----1-3-| 
PM   .  . . . . . . .  . . . . . . . 
 
eb|---------------------------------------------| 
Bb|---------------------------------------------| 
Gb|---------------------------------------------| 
Db|-------5--------------5--------------7-------| 
Ab|---5-----5--------5-----5--------7-----7-----| 
Eb|-3---3-----3-3--3---3-----3-5--5---5-----5-5-| 
PM  . . . . . . .  . . . . . . .  . . . . . . .
                  
eb|----------------------------------------------| 
Bb|----------------------------------------------| 
Gb|----------------------------------------------| 
Db|-------7---------------10---------------9-----| 
Ab|---7-----7--------10------10--------9-----9---| 
Eb|-5---5-----5-8--8----8-------8-7--7---7-----7-|
PM  . . . . . . .  . .  .  .  . . .  . . . . . .
 
     


Pre Chorus Gt 1


eb|---------------------------------------------------|
Bb|---------------------------------------------------|
Gb|---------------------------------------------------|
Db|-33333333--5~~~~~-7~~~~~-1010101010101010-99999999-|
Ab|-33333333--5~~~~~-7~~~~~-1010101010101010-99999999-|
Eb|-11111111--3~~~~~-5~~~~~-8-8-8-8-8-8-8-8--77777777-|
PM  ........


Pre chorus Gt 2

eb|------------------------------------------------------------|
Bb|------------------------------------------------------------|
Gb|------------------------------------------------------------|
Db|-----------3--------5~~~~~-7~~~~~-1010101010101010-99999999-|
Ab|-------3-----3------5~~~~~-7~~~~~-1010101010101010-99999999-|
Eb|--1--1---1-----1-1--3~~~~~-5~~~~~-8-8-8-8-8-8-8-8--77777777-|
PM   .  . . . . . . .


Chorus, Both guitars x 4


eb|----------------------------------------------------| 
Bb|----------------------------------------------------| 
Gb|--2--2--2-2-2--------------5--5--5-5-5--5--5--5-5-5-| 
Db|--2--2--2-2-2-3--3--3-3-3--5--5--5-5-5--5--5--5-5-5-| 
Ab|--0--0--0-0-0-3--3--3-3-3--3--3--3-3-3--3--3--3-3-3-| 
Eb|--------------1--1--1-1-1---------------------------| 



Verse Gt 1: x2


eb|--------------------------------------|
Bb|--------------------------------------|
Gb|--------------------------------------|
Db|-33333333-33333333--55555555-55555555-|
Ab|-33333333-33333333--55555555-55555555-|
Eb|-11111111-11111111--33333333-33333333-|
PM  ........ ........  ........ .......  


eb|---------------------------------------------|
Bb|---------------------------------------------|
Gb|---------------------------------------------|
Db|-77777777-77777777-1010101010101010-99999999-|
Ab|-77777777-77777777-1010101010101010-99999999-|
Eb|-55555555-55555555-8-8-8-8-8-8-8-8--77777777-|
PM  ........ ........ . . . . . . . .  ........


Verse Gt 2:  x2
                                                                 

eb|----------------------------------| 
Bb|----------------------------------| 
Gb|----------------------------------|
Db|-----------3--------------3-------|
Ab|-------3-----3--------3-----3-----|
Eb|--1--1---1-----1-1--1---1-----1-3-| 
PM   .  . . . . . . .  . . . . . . . 
 
eb|---------------------------------------------| 
Bb|---------------------------------------------| 
Gb|---------------------------------------------| 
Db|-------5--------------5--------------7-------| 
Ab|---5-----5--------5-----5--------7-----7-----| 
Eb|-3---3-----3-3--3---3-----3-5--5---5-----5-5-| 
PM  . . . . . . .  . . . . . . .  . . . . . . .
                  
eb|----------------------------------------------| 
Bb|----------------------------------------------| 
Gb|----------------------------------------------| 
Db|-------7---------------10---------------9-----| 
Ab|---7-----7--------10------10--------9-----9---| 
Eb|-5---5-----5-8--8----8-------8-7--7---7-----7-|
PM  . . . . . . .  . .  .  .  . . .  . . . . . .


Pre Chorus Gt 1

[ Tab from: http://www.guitartabs.cc/tabs/g/good_charlotte/sos_tab_ver_5.html ]
eb|---------------------------------------------------|
Bb|---------------------------------------------------|
Gb|---------------------------------------------------|
Db|-33333333--5~~~~~-7~~~~~-1010101010101010-99999999-|
Ab|-33333333--5~~~~~-7~~~~~-1010101010101010-99999999-|
Eb|-11111111--3~~~~~-5~~~~~-8-8-8-8-8-8-8-8--77777777-|
PM  ........


Pre chorus Gt 2

eb|------------------------------------------------------------|
Bb|------------------------------------------------------------|
Gb|------------------------------------------------------------|
Db|-----------3--------5~~~~~-7~~~~~-1010101010101010-99999999-|
Ab|-------3-----3------5~~~~~-7~~~~~-1010101010101010-99999999-|
Eb|--1--1---1-----1-1--3~~~~~-5~~~~~-8-8-8-8-8-8-8-8--77777777-|
PM   .  . . . . . . .


Chorus, Both Gtrs x 4


eb|----------------------------------------------------| 
Bb|----------------------------------------------------| 
Gb|--2--2--2-2-2--------------5--5--5-5-5--5--5--5-5-5-| 
Db|--2--2--2-2-2-3--3--3-3-3--5--5--5-5-5--5--5--5-5-5-| 
Ab|--0--0--0-0-0-3--3--3-3-3--3--3--3-3-3--3--3--3-3-3-|
Eb|--------------1--1--1-1-1---------------------------|


After chorus, Both Gtrs

eb|--------|
Bb|--------|
Gb|--------|
Db|-3~~~~~-|
Ab|-3~~~~~-|
Eb|-1~~~~~-|



  
Bridge, Both Gtrs

                                                         
eb|----------------------------------------------------------|
Bb|----------------------------------------------------------|
Gb|----------------------------------------------------------|
Db|--6-6--6-6-6--6-6-6--6-6-6--6-7-7--7-7-7--7-7-7--7-7-7--7-|
Ab|--6-6--6-6-6--6-6-6--6-6-6--6-7-7--7-7-7--7-7-7--7-7-7--7-| 
Eb|--4-4--4-4-4--4-4-4--4-4-4--4-5-5--5-5-5--5-5-5--5-5-5--5-|

eb|-----------------------------| 
Bb|-----------------------------| 
Gb|-----------------------------| 
Db|--5-5--5-5-5--5-5-5--5-5-5---| 
Ab|--5-5--5-5-5--5-5-5--5-5-5---| 
Eb|--3-3--3-3-3--3-3-3--3-3-3---| 
 

                                               
eb|------------------------------------------------------------|
Bb|------------------------------------------------------------| 
Gb|------------------------------------------------------------| 
Db|--5-3-3--3-3-3--3-3-3--3-3-3--3-6-6--6-6-6--6-6-6--6-6-6--6-| 
Ab|--5-3-3--3-3-3--3-3-3--3-3-3--3-6-6--6-6-6--6-6-6--6-6-6--6-| 
Eb|--3-1-1--1-1-1--1-1-1--1-1-1--1-4-4--4-4-4--4-4-4--4-4-4--4-|

eb|---------------------------| 
Bb|---------------------------| 
Gb|---------------------------| 
Db|--7-7--7-7-7--7-7-7--7-7-7-|
Ab|--7-7--7-7-7--7-7-7--7-7-7-| 
Eb|--5-5--5-5-5--5-5-5--5-5-5-| 

      
eb|------------------------------------------------------------| 
Bb|------------------------------------------------------------| 
Gb|------------------------------------------------------------| 
Db|-7-5-5--5-5-5--5-5-5--5-5-5--5-6-6--6-6-6--6-6-6---6-6-6--6-| 
Ab|-7-5-5--5-5-5--5-5-5--5-5-5--5-6-6--6-6-6--6-6-6---6-6-6--6-|
Eb|-5-3-3--3-3-3--3-3-3--3-3-3--3-4-4--4-4-4--4-4-4---4-4-4--4-|

eb|----------------------------| 
Bb|----------------------------| 
Gb|----------------------------| 
Db|--7-7--7-7-7--7-7-7--7-7-7--| 
Ab|--7-7--7-7-7--7-7-7--7-7-7--| 
Eb|--5-5--5-5-5--5-5-5--5-5-5--| 
      
eb|---------------------------------------------------| 
Bb|---------------------------------------------------| 
Gb|---------------------------------------------------| 
Db|-7-10-10-10-10-10-10-10-10-10-10-10-10-10-10-10-10-| 
Ab|-7-10-10-10-10-10-10-10-10-10-10-10-10-10-10-10-10-| 
Eb|-5--8--8--8--8--8--8--8--8--8--8--8--8--8--8--8--8-| 




Backing for solo, Gt 1 x 4

eb|----------------------------------------------------| 
Bb|----------------------------------------------------| 
Gb|--2--2--2-2-2--------------5--5--5-5-5--5--5--5-5-5-| 
Db|--2--2--2-2-2-3--3--3-3-3--5--5--5-5-5--5--5--5-5-5-| 
Ab|--0--0--0-0-0-3--3--3-3-3--3--3--3-3-3--3--3--3-3-3-|
Eb|--------------1--1--1-1-1---------------------------|



Solo, Gt 2

eb|--------------------------------------------| 
Bb|----------------------------8-6-------------| 
Gb|----9-9-9-------9-7-------------9-7---------| 
Db|-10-------10-10---------------------10-7--7-| 
Ab|---------------------10-10------------------| 
Eb|--------------------------------------------|

eb|----------------------------------| 
Bb|------------------------8-6---6---| 
Gb|9-9-9-------9-7-------------9---9-| 
Db|------10-10-----------------------| 
Ab|------------------10-10-----------| 
Eb|----------------------------------|  

     
eb|--------------------------------------------| 
Bb|----------------------------8-6-------------| 
Gb|----9-9-9-------9-7-------------9-7---------| 
Db|-10-------10-10---------------------10-7--7-|
Ab|---------------------10-10------------------|
Eb|--------------------------------------------| 

eb|----------------------------------| 
Bb|------------------------8-6---6---| 
Gb|9-9-9-------9-7-------------9---9-| 
Db|------10-10-----------------------| 
Ab|------------------10-10-----------| 
Eb|----------------------------------| 


Outro, Gt1 x4

                                              
eb|--0---0--0---1-1-1----0----0----0----0----0-------0~-| 
Bb|--1---1--1---1-1-1----1----1----1----1----1-------1~-| 
Gb|--2---2--2---2-2-2----0----0----0----0----0-------0~-| 
Db|--2---2--2---3-3-3----2----2----2----2----2-------2~-| 
Ab|--0---0--0---3-3-3----3----3----3----3----3-------3~-| 
Eb|-------------1-1-1-----------------------------------|


OKay any questions or stuff etc e mail me at either kirk_hammet_2nd@msn.com or
so_long_and_goodnight5@hotmail.co.uk, I also tabbed out chornicles of life and
death ver 4 and watch out for my version of the whole album, peace
Comments