Good Charlotte - Sos Chords & Tabs

 

Sos Chords & Tabs

Good Charlotte Chords & Tabs

Version: 4 Type: Tab 0 ratings
1 star 2 stars 3 stars 4 stars 5 stars
comments

Sos Tab

Band: Good Charlotte
Song: S.O.S.
Album: The Chronicles of Life and Death
Tabbed by: James Chang
Email: jchang_180@hotmail.com

Tuning: EADGBe

p = pull off
b = bend until released
r = release bend
(#) = pick the note that you are bending

  2:47
e|---------------------|
B|---------------------|
G|-----8-8---8-----8-6-|
D|-9-9-----9---9-9-----|
A|---------------------|
E|---------------------|

  2:50
e|-----------------|
B|-----7-----------|
G|-------9-8-6-----|
D|-9-9---------9-6-|
A|-----------------|
E|-----------------|

  2:53
e|-----------------|
B|-----------------|
G|-8-8---8-----8-6-|
D|-----9---9-9-----|
A|-----------------|
E|-----------------|

  2:56
e|---------------|
B|-----7---------|
G|-------9-8-9-8-|
D|-9-9-----------|
A|---------------|
E|---------------|
[ Tab from: http://www.guitartabs.cc/tabs/g/good_charlotte/sos_tab_ver_4.html ]
  2:58
e|------------------------------------|
B|------------------------------------|
G|-11p9p8-11p9p8-------------------11-|
D|---------------11p9p8-11p9p8-8-9----|
A|------------------------------------|
E|------------------------------------|

  3:00
e|-------------------------------------------------|
B|------11b12-(12)-(12)-(12)-(12)-(12)-r11-11-9----|
G|----8-----------------------------------------11-|
D|-11----------------------------------------------|
A|-------------------------------------------------|
E|-------------------------------------------------|

  3:03
e|----------------------------------------|
B|----11b12-(12)-(12)-(12)-(12)-r11-11-11-|
G|-11-------------------------------------|
D|----------------------------------------|
A|----------------------------------------|
E|----------------------------------------|

  3:05
e|-9-9-9-9----------------------------------------------|
B|---------11b12-(12)-(12)-(12)-(12)-r11-11-9-----------|
G|--------------------------------------------11-----11-|
D|-----------------------------------------------8-9----|
A|------------------------------------------------------|
E|------------------------------------------------------|
Comments