Good Charlotte - Sos Chords & Tabs

 

Sos Chords & Tabs

Good Charlotte Chords & Tabs

Version: 2 Type: Tab 0 ratings
1 star 2 stars 3 stars 4 stars 5 stars
comments

Sos Tab

so this is my first tab its pretty acurate but if you want to play with the cd the tuning
is a little off you can ear tune to the first part of the first verse and tune the rest
from there.

p=pull off
~=let ring
pm=palm mute

*listen to the song for strumming patterns*


                intro
E--4-------7-------------------------------------------------------------|
A--6---7---9-------------------------------------------------------------|
D--6---9---9-------------------------------------------------------------|
G------9-----------------------------------------------------------------|
B------------------------------------------------------------------------|
E------------------------------------------------------------------------|


              verse  riff (guitar 1)  pm

E-0-0--------4-----------------------------------------------------------|
A-----2-2---2------------------------------------------------------------|
D------- --1-------------------------------------------------------------|X2
G------------------------------------------------------------------------|
B------------------------------------------------------------------------|
E------------------------------------------------------------------------|

                                      pm
E-2-2--------0-----------------------------------------------------------|
A-----4-4---4------------------------------------------------------------|
D----------6-------------------------------------------------------------|X2
G------------------------------------------------------------------------|
B------------------------------------------------------------------------|
E------------------------------------------------------------------------|

                                      pm
E-4-4--------7-----------------------------------------------------------|
A-----6-6---6------------------------------------------------------------|
D----------4-------------------------------------------------------------|X2
G------------------------------------------------------------------------|
B------------------------------------------------------------------------|
E------------------------------------------------------------------------|

                                       pm
E-7-7---------7----------------------------------------------------------|
A-----9-9----9-----------------------------------------------------------|
D----------11------------------------------------------------------------|X1
G------------------------------------------------------------------------|
B------------------------------------------------------------------------|
E------------------------------------------------------------------------|

                                       pm
E-6-6--------6-----------------------------------------------------------|
A-----9-9---9------------------------------------------------------------|
D----------8-------------------------------------------------------------|X1
G------------------------------------------------------------------------|
B------------------------------------------------------------------------|
E------------------------------------------------------------------------|

                      verse chords (guitar 2)

                            pm
E---0-----2-----4-----7-----6--------------------------------------------|
A---2-----4-----6-----9-----8--------------------------------------------|
D------------------------------------------------------------------------|
G------------------------------------------------------------------------|
B------------------------------------------------------------------------|
E------------------------------------------------------------------------|


(climb up)after you play the verse riff and chords 2 times play this...
[ Tab from: http://www.guitartabs.cc/tabs/g/good_charlotte/sos_tab_ver_2.html ]
                      *only pm the first chord*
E--0----3---4---7---6----------------------------------------------------|
A--2----2---6---9---8----------------------------------------------------|
D-------1---6---9---8----------------------------------------------------|
G------------------------------------------------------------------------|
B------------------------------------------------------------------------|
E------------------------------------------------------------------------|


                    chorus

E--4-------7-------------------------------------------------------------|
A--6---7---9-------------------------------------------------------------|
D--6---9---9-------------------------------------------------------------|
G------9-----------------------------------------------------------------|
B------------------------------------------------------------------------|
E------------------------------------------------------------------------|


(hook) play this after you play the chorus the second time


E--0~~~~---3------4------2-----------------------------------------------|
A--2-------2------6------2--4--------------------------------------------|
D----------1------6------2--4--------------------------------------------|
G------------------------2-3---------------------------------------------|
B------------------------2-----------------------------------------------|
E------------------------2-----------------------------------------------|


E--0-------3------4------2-----------------------------------------------|
A--2-------2------6------2--4--------------------------------------------|
D----------1------6------2--4--------------------------------------------|
G------------------------2-3---------------------------------------------|
B------------------------2-----------------------------------------------|
E------------------------2-----------------------------------------------|


E--0----3---4---7---6----------------------------------------------------|
A--2----2---6---9---8----------------------------------------------------|
D-------1---6---9---8----------------------------------------------------|
G------------------------------------------------------------------------|
B------------------------------------------------------------------------|
E------------------------------------------------------------------------|


then solo

E------------------------------------------------------------------------|
A------------------------------------------------------------------------|
D------------------------------------------------------------------------|
G--4-4-------4-4--------------------1------------------------------------|
B------4-4-4-----4-2--0-0-----4-2-0--------------------------------------|
E-------------------------2-0--------------------------------------------|

E------------------------------------------------------------------------|
A------------------------------------------------------------------------|
D------------------------------------------------------------------------|
G--------4-4-------------------------------------------------------------|
B--4-4-4-----4-2--0-0-----4-5-4------------------------------------------|
E---------------------2-0------------------------------------------------|


E------------------------------------------------------------------------|
A------------------------------------------------------------------------|
D------------------------------------------------------------------------|
G--------------------3------3---3----------------------------------------|
B------4------4--2P0----2P0-------0--------------------------------------|
E--2P0----2P0-----------------------2------------------------------------|


E------------------------------------------------------------------------|
A------------------------------------------------------------------------|
D------------------------------------------------------------------------|
G--6-8-------------------------------------------------------------3-----|
B------------------9-7--7-----------------------------------9-7-----0----|
E------7--7-7-7-6---------7-7-7--6-6--9-9-9-9--7-7-7-7--7-6----------2---|


outro

E--4-------7-------------------------------------------------------------|
A--6---7---9-------------------------------------------------------------|
D--6---9---9-------------------------------------------------------------|
G------9-----------------------------------------------------------------|
B------------------------------------------------------------------------|
E------------------------------------------------------------------------|

*listen to the song for strumming patterns*
Comments