Good Charlotte - Someday Chords & Tabs

 

Someday Chords & Tabs

Good Charlotte Chords & Tabs

Version: 1 Type: Tab 0 ratings
1 star 2 stars 3 stars 4 stars 5 stars
comments

Someday Tab

-----------------------------------------------------------------------------
			     Someday - Good charlotte
-----------------------------------------------------------------------------
Tabbed by:Flea
Email:Fleabite88@aol.com

Tuning: Regular

Hey I love GC and this is one of their first songs if you know it your a minority.

Intro:
----------------------|
----------------------|
---------0---0---0----|X3
------0----2---0------|
-0--2-----------------|
[ Tab from: http://www.guitartabs.cc/tabs/g/good_charlotte/someday_tab.html ]
Then:
[----------------------|
[----------------------|
[---------0---0---2----|
[------0----2---0------|
[-0--2-----------------|

Chorus:
[---------------------------------------|
[---------------------------------------|
[--5-----4-------5-----4-----9-----7----|
[--5-X8--4--X8---5-X8--4-X8--9-X4--7----|X4
[--3-----2-------3-----2-----7-----5----|

Just use palm mute for the 2nd verse and the use a variation of the chorus for that 
part where joel says "you never now" Well have fun with this song its an easy one. And look 
GC's new album October 5th 2004!!
Comments