Good Charlotte - Seasons Chords & Tabs


Seasons Chords & Tabs

Good Charlotte Chords & Tabs

Version: 2 Type: Tab 0 ratings
1 star 2 stars 3 stars 4 stars 5 stars

Seasons Tab

SEASONS - Good Charlotte

Tabbed by Andrew Slezak

This is a great song to pick up chicks. 
Most people haven't heard this song but when they
do they will love it. Try it on your girlfriend!

MAIN RIFF - Starts off in Acoustic then'll know.
*This is used for VERSE & CHORUS!!!! ..except the 3rd verse!!!(Below)

e |-------------------------------------------------------------|
B |-------------------------------------------------------------|
G |--5-5-5-5-5-5----------------------------5-5-----------------|
D |--5-5-5-5-5-5--5-5-5-5-5-5--3-3-3-3-3-3--5-5-5/7-7-5---------|
A |--3-3-3-3-3-3--5-5-5-5-5-5--3-3-3-3-3-3--3-3-----------------|
E |---------------3-3-3-3-3-3--1-1-1-1-1-1----------------------|

This keeps repeating but the timings changes here and the with 
some emphasis...listen to it carefully. 

[ Tab from: ]
"I know we talked about it ......"
e |-------------------------------------------------------------|
B |-------------------------------------------------------------|
G |-------------------------------------------------------------|
D |-7----5----7----5----7----5-5-5-5-5--------------------------|
A |-7----5----7----5----7----5-5-5-5-5--------------------------|
E |-5----3----5----3----5----3-3-3-3-3--------------------------|
........then go to Chorus(above)


"October air reminds me of ......."
e |--------------------------------------------------------------|
B |--------------------------------------------------------------|
G |--5----------------5------------------------------------------|
D |--5----5-----3-----5----5----3--------------------------------|
A |--3----5-----3-----3----5----3--------------------------------|
E |-------3-----1----------3----1--------------------------------|

During the Chorus there is another guitar playing one note
(Probably the Acoustic but who know with technology)

B |-20-20-20-20--20-20---20-20-20-20-20............

There is a timing pattern to it like the chorus rhythmn.