Good Charlotte - Screamer Chords & Tabs

 

Screamer Chords & Tabs

Good Charlotte Chords & Tabs

Version: 3 Type: Tab 0 ratings
1 star 2 stars 3 stars 4 stars 5 stars
comments

Screamer Tab

   
Good Charlotte - Screamer

Intro
guitar 1
e|--------17-16----|
B|-----------------|
G|-----16----------|
D|--14-------------|
A|-----------------|
E|-----------------|

guitar 2
these are chords, juz listen to the song for struming
   E  B  A  B
e|--------------|
B|--------------|
G|-1------------|
D|-2--9--7--9---|
A|-2--9--7--9---|
E|-0--7--5--7---|

Verse
Guitar 1
e|-------4---------5p4------|-5--5----7--7---|
B|----5----5----5------5----|--5--5----5--5--|
G|--4---4------4-4------4---|----------------|
D|--------------------------|----------------|
A|--------------------------|----------------|
E|--------------------------|----------------|

Interlude
Guitar 1

e|--4-4h5p4--4-5-4---|
B|----------5-----5--|
G|-------------------|
D|-------------------|x2
A|-------------------|
E|-------------------|

Guitar 2 juz holds an E chord till the chorus

Chorus
Both Guitars
  E  B  A  B
e|--------------|
B|--------------|
G|--------------|
D|-2--9--7--9---|
A|-2--9--7--9---|
E|-0--7--5--7---|

One guitar plays the intro riff towards the end of the chorus until the verse

Bridge
after the 2nd chorus play this
[ Tab from: http://www.guitartabs.cc/tabs/g/good_charlotte/screamer_tab_ver_3.html ]
e|--------------------|
B|--------------------|
G|--------------------|
D|--7--9--2--4--7--9--|
A|--7--9--0--6--7--9--|
E|--5--7--0--6--5--7--|

solo
Guitar 1
e|---------------------------------------------------------------|
B|---------------------------------------------------------------|
G|---------------------------------------------------------------|
D|---------------------------------------------------------------|
A|---------------14-----14h16p14-------------14----16b-16b---14--|
E|-19/0-----14h16--16-----------16p14---14h16--16----------------|

Guitar 2
the chords for the solo are same as the ones in the chorus
 E  B  A  B
e|--------------|
B|--------------|
G|--------------|
D|-2--9--7--9---|
A|-2--9--7--9---|
E|-0--7--5--7---|

Outro
guitar 1
e|--------17-16----|
B|-----------------|
G|-----16----------|
D|--14-------------|
A|-----------------|
E|-----------------|

Guitar 2
 E  B  A  B
e|--------------|
B|--------------|
G|--------------|
D|-2--9--7--9---|
A|-2--9--7--9---|
E|-0--7--5--7---|
End on E

Ok, done.. Plz rate!
HEy Ya ALL.. GC really rawks.. Any corrections/errors or ya jzu wanna talk about GC.. 
mail me at Mk_skywalker@hotmail.com
By: Mark
Comments